PrimaNota.ru - самый крупный в мире бесплатный архив песенных текстов, аккордов, табулатур и нот


Strong Bad - Mascot email - таба, видео

Регистрация Запомнить меня
Войти через:  Facebook Google Twitter Vk Yandex Mail.ru

Strong Bad - Mascot email - таба, видео

Печатать
Просмотров: 89
Уроки эстрадного вокала в Санкт-Петербурге


The Strong Bad Fight Song

Pride of CGNU and its Dumple


--------------------------------------------------
--------------------------------------------------
-----2-------0-----------3---0-0-0------------0---
---------3-------3---0----------------3--2--3-----
--1-----------------------------------------------
--------------------------------------------------

--------------------------------------------------
--------------------------------------------------
-----2-------0-----------3---0-0-0----------------
---------3-------3---0----------------3--2--3-----
--1-----------------------------------------------
--------------------------------------------------



Email:   call_me_mav@yahoo.com

Добавлено: 22.11.2013
Другие материалы по этой песне:
  • Аккорды и текст

Страница создана 22.11.2013
http://primanota.ru/strong-bad/mascot-email-chords.htm
Привет, Гость.
Предлагаем пройти революционный курс по гитаре.
Подарок от PrimaNota.Ru, забирай!