PrimaNota.ru - самый крупный в мире бесплатный архив песенных текстов, аккордов, табулатур и нот


Strokes - Last Nite - аккорды и текст, таба, бас-таба, драм-таба, видео

Регистрация Запомнить меня
Войти через:  Facebook Google Twitter Vk Yandex Mail.ru

Strokes - Last Nite - аккорды и текст, таба, бас-таба, драм-таба, видео

Печатать
Просмотров: 317
Авторы музыки: Julian Casablancas
Авторы текста: Julian Casablancas
Last Nite
Strokes
Here is the full tab with the exception of the chords underneath the solo.
 
The Strokes:
Last nite                   

Intro, first guitar 
 
-----------------:--------------------
-----------------:--------------------  
-5-5-5-5-5-5-5-5-:-5-5-5-5-5-5-5-5-5--
-5-5-5-5-5-5-5-5-:-5-5-5-5-5-5-5-5-5--
-3-3-3-3-3-3-3-3-:-3-3-3-3-3-3-3-3-3--
-----------------:--------------------
 
second guitar comes in with 
 
-----------------:--------------------
-----------------:--------------------
-5-5-5-5-5-5-5-5-:-5-5-5-5-5-5-5-5-5--
-3-3-3-3-3-3-3-3-:-5-5-5-5-5-5-5-5-5--
-3-3-3-3-3-3-3-3-:-3-3-3-3-3-3-3-3-3--
 
VERSE (off beat rhythm)
 
Guitar 1
 
1-2-3-4-:1-2-3-4-  etc
 ^ ^ ^ ^  ^ ^ ^ ^ (chords played between the beats)

C        C        Dm       G            Em
--------:--------:--------:------------:--------:
--------:--------:--------:------------:--------:
-5-5-5-5:-5-5-5-5:-7-7-7-7:-12-12-12-12:-9-9-9-9:
-5-5-5-5:-5-5-5-5:-7-7-7-7:-12-12-12-12:-9-9-9-9:    3 times
-3-3-3-3:-3-3-3-3:-5-5-5-5:-10-10-10-10:-7-7-7-7:
 
Guitar 2 (same rhythm as guitar 1)
 
C            C            Dm          G            Em
-8--8--8--8-:-8--8--8--8-:-10-10-10-10:-10-10-10-10:-7-7-7-7:
-8--8--8--8-:-8--8--8--8-:-10-10-10-10:-12-12-12-12:-8-8-8-8:
-9--9--9--9-:-9--9--9--9-:-10-10-10-10:-12-12-12-12:-9-9-9-9:
-10-10-10-10:-10-10-10-10:-12-12-12-12:-12-12-12-12:-9-9-9-9:    3 times
------------:------------:------------:------------:--------:
------------:------------:------------:------------:--------:
 

Chorus (same rhytm as intro)
 
Guitar 1
----------------:-----------------
----------------:-----------------
-5-5-5-5-5-5-5-5:-5-5-5-5-5-5-5-5-
-5-5-5-5-5-5-5-5:-5-5-5-5-5-5-5-5-      4 times
-3-3-3-3-3-3-3-3:-3-3-3-3-3-3-3-3-
----------------:-----------------
 
Guitar 2
----------------:-----------------
----------------:-----------------
-5-5-5-5-5-5-5-5:-5-5-5-5-5-5-5-5-     
-3-3-3-3-3-3-3-3:-5-5-5-5-5-5-5-5-       4 times
-3-3-3-3-3-3-3-3:-3-3-3-3-3-3-3-3-
----------------:-----------------
 

Repeat the verse twice
 
Bridge (listen to cd for rhythm)
 
guitar 2 doesn't play again until the solo
 
-1--2--3--4--:-1--2--3--4--- 
 
Guitar 1 on it's own
-------------:--------------
-------------:--------------
-5-55-55-5-55:-5-55-55-5-55-
-5-55-55-5-55:-5-55-55-5-55-
-3-33-33-3-33:-3-33-33-3-33-
-------------:--------------
 
Then (same rhythm as chorus)
 
----------------:-----------------
----------------:-----------------
-5-5-5-5-5-5-5-5:-5-5-5-5-5-5-5-5-
-5-5-5-5-5-5-5-5:-5-5-5-5-5-5-5-5-
-3-3-3-3-3-3-3-3:-3-3-3-3-3-3-3-3-
----------------:-----------------
 
with the bass playing
 
----------------:-----------------
-3-3-3-3-3-3-3-3:-5-5-5-5-5-5-5-5-
----------------:-----------------
----------------:-----------------
 
Solo ( haven't worked out the chords underneath yet)
 
Guitar 2
 
---------------------------------------------------
-18b20r18--18b19r18p16--16-18b19--18b19r18p16--16--
----------------------17---------------------17--17
---------------------------------------------------
---------------------------------------------------
---------------------------------------------------
 
---------------------------------------------------
-16---15--------13-----13-----13-----13------------
---14---12-15b17--15b17--15b17--15b17--------------   play this part twice
---------------------------------------15----------
---------------------------------------------------
---------------------------------------------------
 
------------------------------------------------------------------
----------------------------------------------16b18-16b18-16b18r16
--------------------------------17171717171717--------------------
-13-10-13-10-13-10-13-10-13-10--17171717171717--------------------
------------------------------------------------------------------
------------------------------------------------------------------
                                 ^^^^^^^^^^^^^ 
                            (tremelo strum these double stops) 
 

Then repeat the chorus
 
Then play the verse twice
 
Outro
 
Both guitars play the first 2 bars of the verse
 
then play the chorus 
 
then guitar 2 stops playing, guitar 1 plays 2 bars of C, then end on a C chord.

Tabbed by cleggy.
===========


the strokes
last nite

kevin parker
loopezz@hotmail.com

this is just the intro because you all have it wrong,

standard tuning
gtr 1
|--------------------------------|
|--------------------------------|
|5-5-5-5-5-5-5-5-5-5-5-5-5-5-5-5-|
|--------------------------------|
|3-3-3-3-3-3-3-3-3-3-3-3-3-3-3-3-|
|--------------------------------|x2

gtr2 (comes in after top bit )

|--------------------------------|
|--------------------------------|
|5-5-5-5-5-5-5-5-5-5-5-5-5-5-5-5-|
|3-3-3-3-3-3-3-3-5-5-5-5-5-5-5-5-|
|3-3-3-3-3-3-3-3-3-3-3-3-3-3-3-3-|
|--------------------------------|x2
Добавлено: 11.05.2012
Другие материалы по этой песне:

Страница создана 16.03.2012
http://primanota.ru/strokes/last-nite-chords.htm
Привет, Гость.
Предлагаем пройти революционный курс по гитаре.
Подарок от PrimaNota.Ru, забирай!