PrimaNota.ru - самый крупный в мире бесплатный архив песенных текстов, аккордов, табулатур и нот


String-A-longs - The Wheels - аккорды и текст, таба, бас-таба, видео

Регистрация Запомнить меня
Войти через:  Facebook Google Twitter Vk Yandex Mail.ru

String-A-longs - The Wheels - аккорды и текст, таба, бас-таба, видео

Печатать
Просмотров: 120
Уроки эстрадного вокала в Санкт-Петербурге
The Wheels
String-A-longs
   Eb                                      Bb7
E|------------|---------------------------|--------------|
B|------------|-4------3-----1------------|--------------|
G|-0----3--0--|----0------0-----3---0-----|-1------3-----|
D|---1--------|------------------------1--|----0------0--|
A|------------|---------------------------|--------------|
E|------------|---------------------------|--------------|

   Bb7                          Eb
E|-----------------------------|---------------|--------------------------|
B|--3------1-------------------|---------------|--4-----3-----1-----------|
G|---------------3---1---------|-0------3---0--|----0------0----3---0-----|
D|-----0-----0-------------0---|----1----------|-----------------------1--|
A|---------------------3-------|---------------|--------------------------|
E|-----------------------------|---------------|--------------------------|

Bb7                          Eb       Eb        Bb7            Eb
E|-------------------------|--------||----------|-------------|---------------|
B|------------1------------|--------||----------|-------------|---------------|
G|-1-------1-----3---------|--------||------3---|--3---1---1--|--1---0---0----|
D|---0--3--------------0---|--1-----||--1-------|-------------|---------------|
A|-----------------3-------|--------||----------|-------------|---------------|
E|-------------------------|--------||----------|-------------|---------------|

(Repeat the first 8 bars................Then play this bit)

Bb7             Eb              Bb7            Eb           Bb7        Eb
E|-------------|---------------|--------------|------------|----------|--------|
B|-------------|---------------|--------------|------------|----------|--------|
G|-0-----------|------------3--|--3---1---1---|--1--0--0---|-0--------|--------|
D|---3---------|---------------|--------------|------------|----3-----|--1-----|
A|------3---3--|--3---1--------|--------------|------------|-------1--|--------|
E|-------------|---------------|--------------|------------|----------|--------|
Добавлено: 13.12.2015
Другие материалы по этой песне:

Страница создана 13.12.2015
http://primanota.ru/string-a-longs/wheels-chords.htm
Привет, Гость.
Предлагаем пройти революционный курс по гитаре.
Подарок от PrimaNota.Ru, забирай!