PrimaNota.ru - самый крупный в мире бесплатный архив песенных текстов, аккордов, табулатур и нот


Striker - Crossroads - таба, видео

Регистрация Запомнить меня
Войти через:  Facebook Google Twitter Vk Yandex Mail.ru

Striker - Crossroads - таба, видео

Печатать
Просмотров: 86
Title: Crossroads
Artist: Striker
Album: City of Gold
Music: Dan Cleary
Copyright:
Tabber: Tim Brown
Tempo = 160
Electric Guitar

Legend
L - tied note
x - dead note
h - hammer on/pull off
b - bend
s - slide
~ - vibrato
g - ghost note
> - accentuated note
t - trill
M - palm mute
. - staccato
P - popping (bass)
S - slapping (bass)
+ - tapping
W - wide vibrato
< - fade in
w - whammy bar
= - tremolo picking
v - brush up
^ - brush down
V - pick stroke up
n - pick stroke down


----------------------------|
--22b------22L---------22---|
----------------------------|
----------------------------|
----------------------------|
----------------------------|


----------------------------------------------------|
--12-13-12----12-13-15-13-12----------12------------|
-----------14----------------14-12-11----14-12-11---|
----------------------------------------------------|
----------------------------------------------------|
----------------------------------------------------|


----------------------------|
----------------------------|
----------------------------|
--14-13L---------------13---|
----------------------------|
----------------------------|


----------------------------------------------------|
----------------------------------------------------|
--------------11-12-11----11~-----------------------|
--------13-14----------14---------------------------|
--14s15---------------------------------------------|
----------------------------------------------------|


--11-14-11----11-14-11----11-14-11----11-14-11------|
-----------12----------12----------12----------12---|
----------------------------------------------------|
----------------------------------------------------|
----------------------------------------------------|
----------------------------------------------------|


--12-15-12----12-15-12----12-15-12----12-15-12------|
-----------12----------12----------12----------12---|
----------------------------------------------------|
----------------------------------------------------|
----------------------------------------------------|
----------------------------------------------------|


--14----------------14-17-14----17-20-17------------|
-----16----------16----------16----------19---------|
--------17-14-17----------------------------20s-----|
----------------------------------------------------|
----------------------------------------------------|
----------------------------------------------------|


--22b------22L---------22---|--19-0--19-17-------17-0--17-15---------|
----------------------------|--------------17s15-------------15s13---|
----------------------------|----------------------------------------|
----------------------------|----------------------------------------|
----------------------------|----------------------------------------|
----------------------------|----------------------------------------|


--15----------0-----------15----------14----------12----------------------12----|
--------------------------------------------------------------12----------------|
--------------------------------------------------------------------------------|
--------------------------------------------------------------------------------|
--------------------------------------------------------------------------------|
--------------------------------------------------------------------------------|


---12-------14-------14-------15-------15-------14-------14---------|
--------------------------------------------------------------------|
--------------------------------------------------------------------|
--------------------------------------------------------------------|
--------------------------------------------------------------------|
--------------------------------------------------------------------|


--12-12-14-14-10-10-12-12-9--9--10-10-7--7--8--8----|
----------------------------------------------------|
----------------------------------------------------|
----------------------------------------------------|
----------------------------------------------------|
----------------------------------------------------|


--7--8--7-----7-------------------------------------|
-----------10----10-8--7--8-----------7-------------|
----------------------------------------------------|
----------------------------------------------------|
----------------------------------------------------|
----------------------------------------------------|


--7--5--0-----------8--7--5-------------|
----------------------------------------|
-----------5--4--2-----------7--5--4----|
----------------------------------------|
----------------------------------------|
----------------------------------------|


--10-8--7-----------12-10-8-------------|
----------------------------------------|
-----------9--7--5-----------12-10-9----|
----------------------------------------|
----------------------------------------|
----------------------------------------|


-----------------------------------17-19h20h19h17---|--22L------22-22-20---|
-----------17-19h20h19h17-17-19h20------------------|----------------------|
--16-18h19------------------------------------------|----------------------|
----------------------------------------------------|----------------------|
----------------------------------------------------|----------------------|
----------------------------------------------------|----------------------|


--19----20----19----20----19----20----19----20----19----20----19----20----19----|
--------------------------------------------------------------------------------|
--------------------------------------------------------------------------------|
--------------------------------------------------------------------------------|
--------------------------------------------------------------------------------|
--------------------------------------------------------------------------------|


20----19----17s------------------------19---------------------------|
--------------------------------------------------------------------|
--------------------------------------------------------------------|
--------------------------------------------------------------------|
--------------------------------------------------------------------|
--------------------------------------------------------------------|


--20-------19L---------------------------------19~--|
----------------------------------------------------|
----------------------------------------------------|
----------------------------------------------------|
----------------------------------------------------|
----------------------------------------------------|


--20----------19-20-19----17----------19----------17------------------------|
--------------------------------------------------------------20------------|
----------------------------------------------------------------------------|
----------------------------------------------------------------------------|
----------------------------------------------------------------------------|
----------------------------------------------------------------------------|


-------|
--19~--|
-------|
-------|
-------|
-------|

  w
----------------------------------------------------------------------------|
--17----------17----------19----------20----------19-20-19----17-16---------|
----------------------------------------------------------------------------|
----------------------------------------------------------------------------|
----------------------------------------------------------------------------|
----------------------------------------------------------------------------|


----------------------------------------------------------------------------|
--16----17----16-17-16L---16------------------------------------------------|
-----------------------------17----------------16---------------------------|
----------------------------------------------------------------------------|
----------------------------------------------------------------------------|
----------------------------------------------------------------------------|


--------------------------------------------------------------------------------|
--------------------------------------------------------------------------------|
--16----------17----------16-17-16----14----------16----------17----------16-17-|
--------------------------------------------------------------------------------|
--------------------------------------------------------------------------------|
--------------------------------------------------------------------------------|


--------------------|-------|----|----|----|----|----|----|----|----|----|----|
--------------------|-------|----|----|----|----|----|----|----|----|----|----|
16----14------------|--16~--|----|----|----|----|----|----|----|----|----|----|
--------------------|-------|----|----|----|----|----|----|----|----|----|----|
--------------------|-------|----|----|----|----|----|----|----|----|----|----|
--------------------|-------|----|----|----|----|----|----|----|----|----|----|
Добавлено: 25.07.2015
Другие материалы по этой песне:

Страница создана 25.07.2015
http://primanota.ru/striker/crossroads-chords.htm
Привет, Гость.
Предлагаем пройти революционный курс по гитаре.
Подарок от PrimaNota.Ru, забирай!