PrimaNota.ru - самый крупный в мире бесплатный архив песенных текстов, аккордов, табулатур и нот


Strike - Aquela Historia - бас-таба, видео

Регистрация Запомнить меня
Войти через:  Facebook Google Twitter Vk Yandex Mail.ru

Strike - Aquela Historia - бас-таба, видео

Печатать
Просмотров: 93
Уроки эстрадного вокала в Санкт-Петербурге
Tabbed by: JimBlenderBR

 - Give your rating and help others users to find the best versions of the songs - 

r = Let it Ring


Intro   

G|----------------------------|
D|----------------------------|
A|----------------------------|
E|----------------------4444--|

(.... GO!)

G|--------------------------------------|
D|--------------------------------------|
A|--4444444-----------------------------|
E|----------66666666-22222222-44444444--|  X2


Verse 1 
(Se tudo faz lembrar você...)

G|------------------------------|
D|------------------------------|
A|------------------------------|
E|----------------------2--222--|

(Algo ficou para trás...)

G|--------------------------------------|
D|--------------------------------------|
A|--4444444-----------------------------|
E|----------66666666-22222222-44444444--|  

(Mas eu não vou deixar...)

G|--------------------------------------|
D|--------------------------------------|
A|--4444444-----------------------------|
E|----------44444444-11111111-22222222--|  

(Tudo acontece entre nós...)

G|--------------------------------|
D|--------------------------------|
A|--444-44------------------------|
E|---------6666-6-222-224r--2224--|  


Chorus
(Foi você ...)


G|--------------------------------------|
D|--------------------------------------|
A|--4444444-----------------------------|
E|----------44444444-11111111-22222222--|  x4


Post-Chorus


G|--------------------------------------|
D|--------------------------------------|
A|--4444444-----------------------------|
E|----------66666666-22222222-44444444--|  X2


Verse 2
(Mas se hoje insiste em não me atender...)

G|---------------------|
D|---------------------|
A|--44-----------------|
E|------44--11--2--222-|

(manter a distância entre nós...)

G|--------------------------------------|
D|--------------------------------------|
A|--4444444-----------------------------|
E|----------66666666-22222222-44444444--|  

(Quer alegar que teus pais não querem entender...)

G|--------------------------------------|
D|--------------------------------------|
A|--4444444-----------------------------|
E|----------44444444-11111111-22222222--|  

(Mas se ficarmos a sós...)

G|--------------------------------|
D|--------------------------------|
A|--444-44------------------------|
E|---------6666-6-222-224r--2224--|  


Chorus
(Foi você ...)


G|--------------------------------------|
D|--------------------------------------|
A|--4444444-----------------------------|
E|----------44444444-11111111-22222222--|  x4


Bridge
(Me lembro do teu jeito...)

G|----------------------------------------------------------------------------------------------------|
D|----------------------------------------------------------------------------------------------------|
A|----------------------------------------------------------------------------------------------------|
E|--66-666-666-666-44-444-444-444-22-222-222-222-44-444-446-66666666-44444444--22222-22222--44444444--| 


Instrumental


G|--------------------------------------|
D|--------------------------------------|
A|--4444444-----------------------------|
E|----------44444444-11111111-22222222--| 

G|-------------------------------------------|
D|-------------------33333333-4444-6686------|
A|--44444444---------------------------8064--|
E|-----------44444444------------------------| 


Chorus
(Foi você ...)


G|--------------------------------------|
D|--------------------------------------|
A|--4444444-----------------------------|
E|----------44444444-11111111-22222222--|  x2

G|---------------------------------------------------|
D|-------------------3--0134-34-443------------------|
A|--4444444-----------4------------------------------|
E|----------44444444---------------6-66666666-2r-4r--| 

(Eu te espero aqui)

G|--------------------------------------|
D|--------------------------------------|
A|--4444444-----------------------------|
E|----------44444444-11111111-22222222--| 

(Eu te espero aqui)

G|--------------------------------|
D|--------------------------------|
A|--4444444-----------------------|
E|----------44444444-11111111-2r--| 
 
Добавлено: 04.08.2015
Другие материалы по этой песне:
  • Аккорды и текст

Страница создана 04.08.2015
http://primanota.ru/strike/aquela-historia-chords.htm
Привет, Гость.
Предлагаем пройти революционный курс по гитаре.
Подарок от PrimaNota.Ru, забирай!