PrimaNota.ru - самый крупный в мире бесплатный архив песенных текстов, аккордов, табулатур и нот


Strike Under - Sunday Night Disorientation - таба, видео

Регистрация Запомнить меня
Войти через:  Facebook Google Twitter Vk Yandex Mail.ru

Strike Under - Sunday Night Disorientation - таба, видео

Печатать
Просмотров: 87
lyrics in quotes i don't really know...

e|-|------------------------------------------------------------------------|-|
B|-|----------------3-----------------------------------3-------------------|-|
G|-|-2---5----4---5------5-4----5---4----2---5----4---5------5-4----5---4---|-|
D|-|------------------------------------------------------------------------|-|
A|-|------------------------------------------------------------------------|-|
E|-|-5-5-5-5--5-5-5-5--3-3-3-3--3-3-3-3--2-2-2-2--2-2-2-2--3-3-3-3--3-3-3-3-|-|
     1 2 3 4  1 2 3 4  1 2 3 4  1 2 3 4  1 2 3 4  1 2 3 4  1 2 3 4  1 2 3 4

or
         
e|-|------------------------------------------------------------------------|-|
B|-|-----1----0---1-3----1-0----1---0--------1----0---1-3----1-0----1---0---|-|
G|-|-2-----------------------------------2----------------------------------|-|
D|-|------------------------------------------------------------------------|-|
A|-|-0-0-0-0--0-0-0-0-------------------------------------------------------|-|
E|-|-------------------3-3-3-3--3-3-3-3--2-2-2-2--2-2-2-2--3-3-3-3--3-3-3-3-|-|
     1 2 3 4  1 2 3 4  1 2 3 4  1 2 3 4  1 2 3 4  1 2 3 4  1 2 3 4  1 2 3 4
        
e|-|------------------------------------------------------------------------|-|
B|-|------------------------------------------------------------------------|-|
G|-|-----2------2-----------------------------------------------------------|-|
D|-|-----------------------5------5----------4------4----------5------5-----|-|
A|-|-0-----0------0-0-------------------------------------------------------|-|
E|-|-------------------3-----3------3-3--2-----2------2-2--3-----3------3-3-|-|
     1 2 3 4  1 2 3 4  1 2 3 4  1 2 3 4  1 2 3 4  1 2 3 4  1 2 3 4  1 2 3 4

(My leg rolls)
(So the head smooths)
A day's long ahead
Head back to the bed

When we fall back
(And back to back)
(So back to the rack)
Pull in the slack
Pull in the slack

AHHHH

No alarms will go off for me
Tomorrow morning I'll be too tired
There'll be no work for me
Tomorrow morning I just will not get up

When we fall back
(And back to back)
(So back to the rack)
Pull in the slack
Pull in the slack

(My leg rolls)
(So the head smooths)
A day's long ahead
Head back to the bed

But when I open my eyes
It was still black
When I open my eyes
Total darkness
When I open my eyes
Total darkness
When I open my eyes
Total darkness

It's still too dark
And it's not clear
It is not there
It's still too dark
It is not clear
It is not there
It's still too dark
It's still not there
And it's still too dark
It is not there
It is unclear
It's still too dark
And it's still not there
It's still too dark
And it's not there
It's just not fair
And it's still there
Добавлено: 15.11.2015
Вам также может быть интересно:
Другие материалы по этой песне:

Страница создана 15.11.2015
http://primanota.ru/strike-under/sunday-night-disorientation-chords.htm
Привет, Гость.
Предлагаем пройти революционный курс по гитаре.
Подарок от PrimaNota.Ru, забирай!