PrimaNota.ru - самый крупный в мире бесплатный архив песенных текстов, аккордов, табулатур и нот


Stria - The Real Me - таба, видео

Регистрация Запомнить меня
Войти через:  Facebook Google Twitter Vk Yandex Mail.ru

Stria - The Real Me - таба, видео

Печатать
Просмотров: 66
-------------------------------------------------------------------------------
                           The Real Me - Stria
-------------------------------------------------------------------------------
Tabbed by: Bart Baart
E-mail: DG.Cryard@gmail.com
If you have any suggestions please, let me know.

Tuning: Drop B


[INTRO] (fade in) (optional)
c#|---------------|--------------|---------------|--------------|
g#|---------------|--------------|---------------|--------------|
e |---------------|--------------|---------------|--------------|
b |-3-3-3--3--3-3-|-3--3-3--3-3--|-8-8-8--8--8-8-|-5--5-5--5-5--|
f#|-3-3-3--3--3-3-|-3--3-3--3-3--|-8-8-8--8--8-8-|-5--5-5--5-5--|
b |-3-3-3--3--3-3-|-3--3-3--3-3--|-8-8-8--8--8-8-|-5--5-5--5-5--|   REPEAT 2X


[VERSE ONE]
c#|--------------|--------------|---------------|-----------------|
g#|--------------|--------------|---------------|-----------------|
e |--------------|--------------|---------------|-----------------|
b |-7--0--0-0--0-|-8--0--0-0--0-|-10--0--0-0--0-|-10-8-7-0-8-7-5--|
f#|-7--0--0-0--0-|-8--0--0-0--0-|-10--0--0-0--0-|-10-8-7-0-8-7-5--|
b |-7--0--0-0--0-|-8--0--0-0--0-|-10--0--0-0--0-|-10-8-7-0-8-7-5--|   REPEAT 2X


[VERSE TWO]
c#|---------------|-----------|---------------|-----------|---------------|-----------|
g#|---------------|-----------|---------------|-----------|---------------|-----------|
e |---------------|-----------|---------------|-----------|---------------|-----------|
b |---------------|-----------|---------------|-----------|---------------|-----------|
f#|---------------|-----------|---------------|-----------|---------------|-----------|
b |-0--0--x-x-x-x-|-0--0------|-0--0--x-x-x-x-|-0--0------|-0--0--x-x-x-x-|-0--0------|

c#|---------------|-----------------|---------------|-----------|---------------|-----------|
g#|---------------|-----------------|---------------|-----------|---------------|-----------|
e |---------------|-----------------|---------------|-----------|---------------|-----------|
b |---------------|-10-8-7-0-8-7-5--|-0--0--x-x-x-x-|-0--0------|-0--0--x-x-x-x-|-0--0------|
f#|---------------|-10-8-7-0-8-7-5--|-0--0--x-x-x-x-|-0--0------|-0--0--x-x-x-x-|-0--0------|
b |-0--0--x-x-x-x-|-10-8-7-0-8-7-5--|-0--0--x-x-x-x-|-0--0------|-0--0--x-x-x-x-|-0--0------|

c#|---------------|-----------|---------------|-----------|
g#|---------------|-----------|---------------|-----------|
e |---------------|-----------|---------------|-----------|
b |-0--0--x-x-x-x-|-0--0------|-0--0--x-x-x-x-|-0--0------|
f#|-0--0--x-x-x-x-|-0--0------|-0--0--x-x-x-x-|-0--0------|
b |-0--0--x-x-x-x-|-0--0------|-0--0--x-x-x-x-|-0--0------|


[PRE-CHORUS] (let ring till chorus begins) (pre-chorus is diffrent every time)
c#|----------|
g#|----------|
e |----------|
b |-0--------|
f#|-0--------|
b |-0--------|


[CHORUS]
c#|---------------|---------------|---------------|---------------------|
g#|---------------|---------------|---------------|---------------------|
e |---------------|---------------|---------------|---------------------|
b |-0--0--0-0-0-0-|-8--8--8-8-8-8-|-3--3--3-3-3-3-|-10--10--10-10-10-10-|
f#|-0--0--0-0-0-0-|-8--8--8-8-8-8-|-3--3--3-3-3-3-|-10--10--10-10-10-10-|
b |-0--0--0-0-0-0-|-8--8--8-8-8-8-|-3--3--3-3-3-3-|-10--10--10-10-10-10-| 

c#|---------------|---------------|---------------|---------------|
g#|---------------|---------------|---------------|---------------|
e |---------------|---------------|---------------|---------------|
b |-0--0--0-0-0-0-|-8--8--8-8-8-8-|-3--3--3-3-3-3-|-5--5--5-5-5-5-|
f#|-0--0--0-0-0-0-|-8--8--8-8-8-8-|-3--3--3-3-3-3-|-5--5--5-5-5-5-|
b |-0--0--0-0-0-0-|-8--8--8-8-8-8-|-3--3--3-3-3-3-|-5--5--5-5-5-5-|

c#|---------------|---------------|---------------|---------------------|
g#|---------------|---------------|---------------|---------------------|
e |---------------|---------------|---------------|---------------------|
b |-0--0--0-0-0-0-|-8--8--8-8-8-8-|-3--3--3-3-3-3-|-10--10--10-10-10-10-| 
f#|-0--0--0-0-0-0-|-8--8--8-8-8-8-|-3--3--3-3-3-3-|-10--10--10-10-10-10-| 
b |-0--0--0-0-0-0-|-8--8--8-8-8-8-|-3--3--3-3-3-3-|-10--10--10-10-10-10-| 

c#|---------------|---------------|---------------|-----------|
g#|---------------|---------------|---------------|-----------|
e |---------------|---------------|---------------|-----------|
b |-5--5--5-5-5-5-|-5--5--5-5-5-5-|-8--8--8-8-8-8-|-8--8------|
f#|-5--5--5-5-5-5-|-5--5--5-5-5-5-|-8--8--8-8-8-8-|-8--8------|
b |-5--5--5-5-5-5-|-5--5--5-5-5-5-|-8--8--8-8-8-8-|-8--8------|


[VERSE THREE] (similar to verse one)
c#|--------------|--------------|---------------|-----------------|
g#|--------------|--------------|---------------|-----------------|
e |--------------|--------------|---------------|-----------------|
b |-7--0--0-0--0-|-8--0--0-0--0-|-10--0--0-0--0-|-10-8-7-0-8-7-5--|
f#|--------------|--------------|---------------|-----------------|
b |--------------|--------------|---------------|-----------------|


[VERSE TWO]
just play verse two like before


[PRE-CHORUS]
keep sillence this time


[CHORUS]
just play the chorus like before


[BRIDGE]
c#|--------------------|-----------------|--------------------|--------------------|
g#|--------------------|-----------------|--------------------|--------------------|
e |--------------------|-----------------|--------------------|--------------------|
b |-x-x-x-12-x-12-x-12-|-x-x-x-7-x-7-x-7-|-x-x-x-10-x-10-x-10-|-x-x-x-10-x-10-x-10-|
f#|-x-x-x-12-x-12-x-12-|-x-x-x-7-x-7-x-7-|-x-x-x-10-x-10-x-10-|-x-x-x-10-x-10-x-10-|
b |-x-x-x-12-x-12-x-12-|-x-x-x-7-x-7-x-7-|-x-x-x-10-x-10-x-10-|-x-x-x-10-x-10-x-10-|   REPEAT 3X

c#|--------------|--------|------------|--------|
g#|--------------|--------|------------|--------|
e |--------------|--------|------------|--------|
b |-5-5-5-5-5----|--------|-8-8-8-8----|--------|
f#|-5-5-5-5-5----|--------|-8-8-8-8----|--------|
b |-5-5-5-5-5----|--------|-8-8-8-8----|--------|


[PRE-CHORUS] (optional) (slide down slowly, wait then slide up and play the chorus right after)
c#|------------|
g#|------------|
e |------------|
b |-15\------/-|
f#|-15\------/-|
b |-15\------/-|


[CHORUS]
just play the chorus like before


[OUTRO] (same as verse one)
c#|--------------|--------------|---------------|-----------------|
g#|--------------|--------------|---------------|-----------------|
e |--------------|--------------|---------------|-----------------|
b |-7--0--0-0--0-|-8--0--0-0--0-|-10--0--0-0--0-|-10-8-7-0-8-7-5--|
f#|-7--0--0-0--0-|-8--0--0-0--0-|-10--0--0-0--0-|-10-8-7-0-8-7-5--|
b |-7--0--0-0--0-|-8--0--0-0--0-|-10--0--0-0--0-|-10-8-7-0-8-7-5--|   REPEAT 2X


Thanks to riffstation: http://play.riffstation.com/?v=FRAlHwvWrCA


************************************

| /   slide up
| \   slide down
| h   hammer-on
| p   pull-off
| ~   vibrato
| +   harmonic
| x   Mute note
| b   Bend
| pb  Pre-bend
| br  Bend release
| pbr Pre-bend release
| brb Bend release bend

************************************
Добавлено: 22.06.2016
Другие материалы по этой песне:
  • Аккорды и текст

Страница создана 22.06.2016
http://primanota.ru/stria/real-me-chords.htm
Привет, Гость.
Предлагаем пройти революционный курс по гитаре.
Подарок от PrimaNota.Ru, забирай!