PrimaNota.ru - самый крупный в мире бесплатный архив песенных текстов, аккордов, табулатур и нот


Streets - It Was Supposed To Be So Easy - текст песни, таба, видео

Регистрация Запомнить меня
Войти через:  Facebook Google Twitter Vk Yandex Mail.ru

Streets - It Was Supposed To Be So Easy - текст песни, таба, видео

Печатать
Просмотров: 118
-----------------------------------------------------------------------------
             IT WAS SUPPOSED TO BE SO EASY - The Streets
-----------------------------------------------------------------------------

Band: The Streets
Song: It Was Supposed To Be So Easy
Album: A Grand Don't Come For Free (2004)

Tabbed by: crimson-dync
Tuning: Standard


[Note: The "." means silence.]


It's this simple riff for the whole song:

e||-----------------|-----------------|-----------------|-----------------|
B||-----------------|-----------------|-----------------|-----------------|
G||-----------------|-----------------|-----------------|-----------------|
D||-1-1-------------|-3---------------|-----------------|-----------------|
A||-----------------|-----------------|-------1-.-------|-1-.-------------|
E||-----------------|-----------------|-1-.-.-----------|-----------------|

e|-----------------|-----------------|-----------------|-----------------||
B|-----------------|-----------------|-----------------|-----------------||
G|-----------------|-----------------|-----------------|-----------------||
D|-1-1-------------|-3---------------|-----------------|-----------1-.-.-||
A|-----------------|-----------------|-------1-.-------|-1-.-.-1-.-------||
E|-----------------|-----------------|-1-.-.-----------|-----------------||

And at 3:20 there is a strings arrangement, in quintuplets:
   Bbm                                         Ebm                   Fm
e|-------------6-------|-------------6-------|-----------6---------|-----------8-13-8----|
B|-----------6---6-.-.-|-----------6---6-----|---------7---------7-|---------9--------9--|
G|---------6-----------|---------6-------6---|-------8---------8---|-------10----------10|
D|-------8-------------|-------8-----------8-|-----8---------8-----|-----10--------------|
A|-----8---------------|-----8---------------|-6-9---------9-------|-8-11----------------|
E|-6-9-----------------|-6-9-----------------|---------------------|---------------------|


Buenos Aires. November, 2015.

soldync@yahoo.com.ar
Добавлено: 22.06.2016
Вам также может быть интересно:
Другие материалы по этой песне:
  • Аккорды и текст

Страница создана 25.06.2012
http://primanota.ru/streets/it-was-supposed-to-be-so-easy-chords.htm
Привет, Гость.
Предлагаем пройти революционный курс по гитаре.
Подарок от PrimaNota.Ru, забирай!