PrimaNota.ru - самый крупный в мире бесплатный архив песенных текстов, аккордов, табулатур и нот


Street Sweeper Social Club - The Oath - таба, бас-таба, видео

Регистрация Запомнить меня
Войти через:  Facebook Google Twitter Vk Yandex Mail.ru

Street Sweeper Social Club - The Oath - таба, бас-таба, видео

Печатать
Просмотров: 169
THE OATH

Standard Tuning


INTRO:
  

Played with the volume down, let every note ring   

e|-------------------------|---------------5--------|
B|------9-----10-9---------|----7-------------5-----| 
G|-9-------9-------9-------|-7-----7--6----------6--|
D|-9------------------9----|-7--------7-------------| 
A|-7-----------------------|-5--------7-------------|
E|-------------------------|----------5-------------|
                                                      
e|-------------------------|----3-----------0-------|
B|------7-----8-7----------|-------3--0--------0----|
G|-7-------7------7--------|-4--------1-------------|
D|-7-----------------7-----|-5--------2-------------|
A|-5-----------------------|-5--------2-------------|
E|-------------------------|-3--------0-------------|

On the third time you turn the volume up on the last E chord


VERSE:

e|---------------------------------------------------|
B|---------------------------------------------------|
G|---------------------------------------------------|
D|----------------------5-----------------------5----|
A|--7--5--7--5--7--5--7----7---5--7--5--7--5--7----7-|
E|--0----------------------0-----------------------0-|
                                                
e|---------------------------------------------------| 
B|---------------------------------------------------|
G|---------------------------------------------------|
D|-------------------5-------------------------------| 
A|--5--7--5--7--5--7----7---5--7--5------5h7-----5-7-|
E|----------------------0------------5h7-----5h7---0-|



CHORUS:
   
e|----------------------------|------------------------|
B|----------------------------|------------------------|
G|-9---9-9--9--x-x--x-x-x-x-x-|-7---7-7--6---6-6--6----|
D|-9---9-9--9--x-x--x-x-x-x-x-|-7---7-7--7---7-7--7----|
A|-7---7-7--7--x-x--x-x-x-x---|-5---5-5--7---7-7--7----|
E|----------------------------|----------5---5-5--5----|
  
e|----------------------------|-----3-3-------0-------|
B|----------------------------|-----0-0--0-------0----|
G|-7---7-7--7--x-x--x-x-x-x-x-|-0---0-0--1------------|
D|-7---7-7--7--x-x--x-x-x-x-x-|-0---0-0--2------------|
A|-5---5-5--5--x-x--x-x-x-x---|-2---2-2--2------------|
E|----------------------------|-3---3-3--0------------|

Добавлено: 24.05.2012
Другие материалы по этой песне:

Страница создана 15.04.2012
http://primanota.ru/street-sweeper-social-club/the-oath-chords.htm
Привет, Гость.
Предлагаем пройти революционный курс по гитаре.
Подарок от PrimaNota.Ru, забирай!