PrimaNota.ru - самый крупный в мире бесплатный архив песенных текстов, аккордов, табулатур и нот


Strebers - Balladen Om Lilla Elsa - таба, видео

Регистрация Запомнить меня
Войти через:  Facebook Google Twitter Vk Yandex Mail.ru

Strebers - Balladen Om Lilla Elsa - таба, видео

Печатать
Просмотров: 75
Intro:

E|-------------------------------------------|
B|-------------------------------------------|
G|-------------------------------------------|
D|---2-2-2-0-2-3-0-2-----2-2-2-3-2-0---------|
A|-0-----------------0-0-------------3-2-----|
E|-------------------------------------------|

E|-------------------------------------------|
B|-------------------------------------------|
G|-------------------------------------------|
D|---2-2-2-0-2-3-0-2-------------2-2-2-2-----|
A|-0-----------------0-0-2-3-2-0-0-0-0-0-----|
E|-------------------------------------------|

Verse:|A|E|C|G|C|E|A|

Chorus: F C Dm Am F C Dm E Am

That's it! this is a very easy song, enjoy.


Det var en liten flicka som en dag i sköna maj,
skulle gå och hämta vatten men hon var lite skrajj.
Hade hört dom vuxna tala om vem som bodde nere i ån,
hon ville inte gå men hon vågade inte säga ifrån.

När hon kom fram till ån hörde hon den vackraste musik,
hon ställde sig att lyssna ingen ton var den andra lik.
Måste bara smyga fram och se, vem musikanten var.
Den männska som hanterar felan så måste va underbar.

Elsa blev bara åtta år,
hon är död nu som ni nog förstår.
Elsa blev bara åtta år,
hon kommer aldrig mera att vakna.

Där nere vid vattnet satt en pojke ung och grann,
han sa kom hit lilla flicka så vi får hälsa på varann.
En våt arm kring en liten hals sen båda två försvann,
och den lilla flickan man sedan aldrig fann.

Elsa blev bara åtta år,
hon är död nu som ni nog förstår.
Elsa blev bara åtta år,
hon kommer aldrig mer att vakna.
Hon kommer aldrig mera att vakna.
Hon kommer aldrig mera att vakna.
Добавлено: 07.05.2012
Вам также может быть интересно:
Другие материалы по этой песне:
  • Аккорды и текст

Страница создана 07.05.2012
http://primanota.ru/strebers/balladen-om-lilla-elsa-chords.htm
Привет, Гость.
Предлагаем пройти революционный курс по гитаре.
Подарок от PrimaNota.Ru, забирай!