PrimaNota.ru - самый крупный в мире бесплатный архив песенных текстов, аккордов, табулатур и нот


Straylight Run - Wait And Watch - таба, видео

Регистрация Запомнить меня
Войти через:  Facebook Google Twitter Vk Yandex Mail.ru

Straylight Run - Wait And Watch - таба, видео

Печатать
Просмотров: 112
This is a new song that will be coming off their new EP "Un Mas Dos" coming out Sept
 this song can be heard on www.altpress.com

()= not necessary

Intro
e|----------------------------------------------------------|
B|----------------------------------------------------------|
G|-----5-----5---2--2-3-2-----------------------------------|
D|---5---(5)-------------5-3--------------------------------|
A|----------------------------------------------------------|
E|----------------------------------------------------------|

piano verse

e|-------7-8-7-----------7-7-------8-12-13-15-13-12-10-----------|
B|-----8-------8-------8----8----10------------------------------|
G|---9-----------9----9------9-----------------------------------|
D|-10---------------10--------10---------------------------------|
A|---------------------------------------------------------------|
E|---------------------------------------------------------------|

e|---13-----12---------------------------------------------------|
B|-10--13-10--13-12 13-------------------------------------------|
G|---------------------------------------------------------------|
D|---------------------------------------------------------------|
A|---------------------------------------------------------------|
E|---------------------------------------------------------------|


Chorus
e|-----8---8---5--5-6-5-------------------------------------|
B|---8--(8)---------------8-6-------------------------------|
G|----------------------------------------------------------|
D|----------------------------------------------------------|
A|----------------------------------------------------------|
E|----------------------------------------------------------|

verse 2 is a more distorted guitar which i am working on

Outro
e|-----8---8---5--5-6-5----------------------------------------|
B|----8-(8)---------------8-6----------------------------------|
G|-------------------------------------------------------------|
D|-------------------------------------------------------------|
A|-------------------------------------------------------------|
E|-------------------------------------------------------------|


that is 1 days work ill will update later
Добавлено: 22.05.2012
Другие материалы по этой песне:
  • Аккорды и текст

Страница создана 22.05.2012
http://primanota.ru/straylight-run/wait-and-watch-chords.htm
Привет, Гость.
Предлагаем пройти революционный курс по гитаре.
Подарок от PrimaNota.Ru, забирай!