PrimaNota.ru - самый крупный в мире бесплатный архив песенных текстов, аккордов, табулатур и нот


Stray From The Path - Rising Sun - таба, видео

Регистрация Запомнить меня
Войти через:  Facebook Google Twitter Vk Yandex Mail.ru

Stray From The Path - Rising Sun - таба, видео

Печатать
Просмотров: 73
-----------------------------------------------------------------
Rising Sun - Stray From The Path
-----------------------------------------------------------------
Tabbed by: Jake Miller
Email: millarso2.0@gmail.com
Tuning: Drop C

Intro/Section 1 (Grungy tone)
D|-------------------------------------------------------------------------|
A|-5b-5b-----------5b-5b---4b-4b-4b-5b-5b-----------5b-5b---------------6b-|
F|-5b-5b-----------5b-5b---4b-4b-4b-5b-5b-----------5b-5b---------------6b-|
C|-------4-4-4-4-4-------3----------------4-4-4-4-4-------0-3b-0-6b-0-5----|x4
G|-------4-4-4-4-4-------3----------------4-4-4-4-4-------0-3b-0-6b-0-5----|
C|-------4-4-4-4-4-------3----------------4-4-4-4-4-------0-3b-0-6b-0-5----|

Section 2
Both Guitars (Distortion)
D|-----------------------------------------------------------------------|
A|-5b-5b-----------5b-5b---4b-4b-4b-5b-5b-----------5b-5b-------------6b-|
F|-5b-5b-----------5b-5b---4b-4b-4b-5b-5b-----------5b-5b-----7---7---6b-|
C|-------4-4-4-4-4-------3----------------4-4-4-4-4-------0-3-7-6-7-5----|x2
G|-------4-4-4-4-4-------3----------------4-4-4-4-4-------0-3-5-6-5-5----|
C|-------4-4-4-4-4-------3----------------4-4-4-4-4-------0-3---6-0-5----|

Section 3
D|----------------------------------|  |-------------------------------------|
A|-5b-5b-----------5b-5b---4b-4b-4b-|  |-5b-5b-----------5b-5b---------------|
F|-5b-5b-----------5b-5b---4b-4b-4b-|  |-5b-5b-----------5b-5b-----7---7---6-|
C|-------4-4-4-4-4-------3----------|x3|-------4-4-4-4-4-------3-3-7-6-7-5-6-|
G|-------4-4-4-4-4-------3----------|  |-------4-4-4-4-4-------3-3-5-6-5-5-4-|
C|-------4-4-4-4-4-------3----------|  |-------4-4-4-4-4-------3-3---6---5---|
The |444---| chords are quickly muted after each strike.

Section 4
D|-----------------|
A|-----------------|
F|----7-----7----6-|
C|-3--7--6--7--5-6-|x7
G|-3--5--6--5--5-4-|
C|-3-----6-----5---|

Section 5
D|-----------------------------------|  |---------------------------------------|
A|-5b-5b------------5b-5b---4b-4b-4b-|  |-5b-5b------------5b-5b-------------4b-|
F|-5b-5b------------5b-5b---4b-4b-4b-|  |-5b-5b------------5b-5b-----5---5---4b-|
C|-------4-4-4-4-44-------3----------|x3|-------4-4-4-4-44-------0-1-5-4-5-3----|
G|-------4-4-4-4-44-------3----------|  |-------4-4-4-4-44-------0-1-3-4-3-3----|
C|-------4-4-4-4-44-------3----------|  |-------4-4-4-4-44-------0-1---4---3----|
         . . . . ..       .                     . . . . ..     

Section 6
D|-----------------------------------|
A|-3b-3b------------3b-3b---2b-2b-2b-|
F|-3b-3b------------3b-3b---2b-2b-2b-|
C|-------2-2-2-2-22-------1----------|x2
G|-------2-2-2-2-22-------1----------|
C|-------2-2-2-2-22-------1----------|
         . . . . ..       .

D|------------------------------------------------------------------------|
A|-3b-3b------------3b-3b---2b-2b-2b-3b-3b------------3b-3b---------------|
F|-3b-3b------------3b-3b---2b-2b-2b-3b-3b------------3b-3b-----5---5---4-|
C|-------2---2---2--------1----------------2-2-2-2-22-------0-1-5-4-5-3-4-|
G|-------2---2---2--------1----------------2-2-2-2-22-------0-1-3-4-3-3-2-|
C|-------2---2---2--------1----------------2-2-2-2-22-------0-1---4---3---|

Pretty simple little song actually, but fun to mess around with.
Please rate & comment.
Thanks,
millarso
Добавлено: 11.11.2013
Другие материалы по этой песне:
  • Аккорды и текст

Страница создана 11.11.2013
http://primanota.ru/stray-from-the-path/rising-sun-chords.htm
Привет, Гость.
Предлагаем пройти революционный курс по гитаре.
Подарок от PrimaNota.Ru, забирай!