PrimaNota.ru - самый крупный в мире бесплатный архив песенных текстов, аккордов, табулатур и нот


Stray From The Path - Landmines - таба, видео

Регистрация Запомнить меня
Войти через:  Facebook Google Twitter Vk Yandex Mail.ru

Stray From The Path - Landmines - таба, видео

Печатать
Просмотров: 69
-------------------------------------------------------------------------------
                             Landmines - Stray From the Path
-------------------------------------------------------------------------------
Tabbed by:UnderTheGates

Tuning:Drop C

This is my first tab, its what i picked up seeing them live and trying to figure it out 
myself so have fun with it and improve it if you want.

Intro/Chorus:x2
D|----------------------------------------------------------------------------|
A|----------------------------------------------------------------------------|
F|----------------------------------------------------R-----------------------|
C|-250--250--52022--xxxxxxxx--52022--250--250--52022--E--52022----------------|
G|-250--250--52022--xxxxxxxx--52022--250--250--52022--S--52022----------------|
C|-250--250--52022--xxxxxxxx--52022--250--250--52022--T--52022----------------|

Verse:
D|-----------------------------------------------------------------------------|
A|-----------------------------------------------------------------------------|
F|-----------------------------------------------------------------------------|
C|-----------------------------------------------------------------------------|
G|-------------------------11---11---1---------------------------11---11---11--|
C|-222025b-222025b-222025b-11-0-11-0-1-0-222025b-222025b-222025b-11-0-11-0-11-0|
                           .. . .. . . .                         .. . .. . .. .
D|-----------------------------------------------------------------------------|
A|-----------------------------------------------------------------------------|
F|-----------------------------------------------------------------------------|
C|----------------------------------------------------------------------222222-|
G|-11111--------------------------11---11---1---------------------------222222-|
C|-111110-222025b-222025b-222025b-11-0-11-0-1-0-222025b-222025b-222025b-222222-|
   ......                         .. . .. . . .                         ......
Pre-Chorus:x2
D|------------------------------|----------|-|----------|-----------------|
A|------------------------------|----------|-|----------|-----------------|
F|-----535-------534-------535--|----------|-|----------|-----------------|
C|x5x--444--x5x--443--x5x--444--|------111-|-|------111-|-----------------|
G|x5x-------x5x-------x5x-------|-222--111-|-|-xxx--111-|-----------------|
C|x5x-------x5x-------x5x-------|-111--111-|-|-555--111-|-----------------|
                                 1st ending   2nd ending
Repeat Intro & Verse

Breakdown
D|-----------------------------------------------------------------------------|
A|-----------------------------------------------------------------------------|
F|-----------------------------------------------------------------------------|
C|-11-1-11-1--11-1-11-1--11-1-111-1--11-1-111-11-1-111--11-1-11-1--------------|
G|-11-1-11-1--11-1-11-1--11-1-111-1--11-1-111-11-1-111--11-1-11-1--------------|
C|-11-1-11-1--11-1-11-1--11-1-111-1--11-1-111-11-1-111--11-1-11-1--------------|
                              ..          ..       ..

D|-----------------------------------------------------------------------------|
A|-----------------------------------------------------------------------------|
F|-----------------------------------------------------------------------------|
C|-11-1-11-1--11-1-11-1----11-1-11-1--11-1-11-1--------------------------------|
G|-11-1-11-1--11-1-11-1----11-1-11-1--11-1-11-1--------------------------------|
C|-11-1-11-1--11-1-11-1-15/11-1-11-1--11-1-11-1-15/----------------------------|

D|------------------------------|----------|-|-------------------|-------------|
A|------------------------------|----------|-|-------------------|-------------|
F|-----535-------534-------535--|----------|-|-------------------|-------------|
C|x5x--444--x5x--443--x5x--444--|-555--111-|-|-111--555-0--1/5--2|-------------|
G|x5x-------x5x-------x5x-------|-555--111-|-|-111--555-0--1/5--2|-------------|
C|x5x-------x5x-------x5x-------|-555--111-|-|-111--555-0--1/5--2|-------------|
                                 1st ending    2nd ending
Rest

D|------------------------------------------------------------------------|
A|------------------------------------------------------------------------|
F|------------------------------------------------------------------------|
C|------------------------------------------------------------------------|
G|----------------00000000--5b--------------------------------------------|
C|000000000000000000000000------------------------------------------------|
  ........................

Reapeat Chorus

Legend:
b-bend
x-mute strings
Добавлено: 21.10.2015
Вам также может быть интересно:
Другие материалы по этой песне:
  • Аккорды и текст

Страница создана 21.10.2015
http://primanota.ru/stray-from-the-path/landmines-chords.htm
Привет, Гость.
Предлагаем пройти революционный курс по гитаре.
Подарок от PrimaNota.Ru, забирай!