PrimaNota.ru - самый крупный в мире бесплатный архив песенных текстов, аккордов, табулатур и нот


Stray From The Path - Badge And A Bullet - таба, видео

Регистрация Запомнить меня
Войти через:  Facebook Google Twitter Vk Yandex Mail.ru

Stray From The Path - Badge And A Bullet - таба, видео

Печатать
Просмотров: 55
Уроки эстрадного вокала в Санкт-Петербурге
-------------------------------------------------------------------------------
                             Stray From The Path - Badge And A Bullet
-------------------------------------------------------------------------------
Tabbed by: vppark2
E-mail: linkinp751@gmail.com

Tuning: Drop C

Guitar one

If you have a wah pedal then it'll be funner to play the beginning and ending...guitar 2
comes in ones you hit the 8b for the 12th time

D|-------guitar two----------------------------------------------------------------------|
A|---------------------------------------------------------------------------------------|
F|8b x28---------------------------------------------------------------------------------|
C|-------2444474-------------------------------------------------------------------------|
G|-------2444474-x4----------------------------------------------------------------------|
C|-------2444474-------------------------------------------------------------------------|

Pre chorus. On the 3rd time playing, play the last part 4 times
D|-------------------------|
A|-------------------------|
F|-------------------------|
C|0000---------------------|x3
G|0000---------------------|
C|0000-240240240-----------|

Chorus
D|-------------------------------------------------------------|
A|---------------334433----------------334433------------------|
F|---------------334433----------------334433------------------|
C|2427b42xxxxxxxx-------2427b42xxxxxxxx------0000--------------|
G|2427b42xxxxxxxx-------2427b42xxxxxxxx------0000--------------|
C|2427b42xxxxxxxx-------2427b42xxxxxxxx------0000--------------|

Repeat Pre Chorus
Repeat Chorus
D|---------------------------------------------------|
A|---------------334433------------------------------|
F|---------------334433------------------------------|
C|2427b42xxxxxxxx------2427b42xxxxxxxx--0000---------|
G|2427b42xxxxxxxx------2427b42xxxxxxxx--0000---------|
C|2427b42xxxxxxxx------2427b42xxxxxxxx--0000---------|

Breakdown
D|------------------------------------------|
A|-------4b4b4b4b------------4b4b4b4b-------|
F|------------------------------------------|
C|0-----2--------7-5-22222222--------7-5-2--|
G|0-x32-2--------7-5-22222222--------7-5-2--|
C|0-----2--------7-5-22222222--------7-5-2--|

Repeat chorus
D|-----------------------------------------------------------|
A|---------------334433--------------------------8b8b8b8b----|
F|---------------334433--------------------------------------|
C|2427b42xxxxxxxx------2427b42xxxxxxxx--2424-----------------|
G|2427b42xxxxxxxx------2427b42xxxxxxxx--2424-----------------|
C|2427b42xxxxxxxx------2427b42xxxxxxxx--2424-----------------|

D|------------------------------------------------------------------------------------|
A|------------------------------------------------------------------------------------|
F|------------------------------------------------------------------------------------|
C|2444474-----------------------------------------------------------------------------|
G|2444474-----------------------------------------------------------------------------|
C|2444474-----------------------------------------------------------------------------|

Repeat the last part as many times as you want...probably about 6.

************************************

| /   slide up
| \   slide down
| h   hammer-on
| p   pull-off
| ~   vibrato
| +   harmonic
| x   Mute note
| b   Bend
| pb  Pre-bend
| br  Bend release
| pbr Pre-bend release
| brb Bend release bend

************************************
Добавлено: 21.10.2015
Другие материалы по этой песне:
  • Аккорды и текст

Страница создана 21.10.2015
http://primanota.ru/stray-from-the-path/badge-and-a-bullet-chords.htm
Привет, Гость.
Предлагаем пройти революционный курс по гитаре.
Подарок от PrimaNota.Ru, забирай!