PrimaNota.ru - самый крупный в мире бесплатный архив песенных текстов, аккордов, табулатур и нот


Stray Cats - Lonely Summer Nights - таба, бас-таба, видео

Регистрация Запомнить меня
Войти через:  Facebook Google Twitter Vk Yandex Mail.ru

Stray Cats - Lonely Summer Nights - таба, бас-таба, видео

Печатать
Просмотров: 156
Авторы музыки: Brian Setzer

LONELY SUMMER NIGHTS

As recorded by Stray Cats
(From the 1981 Album GONNA BALL)

Words and Music by Brian Setzer

Transcribed by Slowhand


Gtr I (E A D G B E) - 'Brian Setzer - Electric Guitar'
Gtr II (E A D G B E) - 'Brian Setzer - Electric Guitar'
Gtr III (E A D G B E) - 'Lee Allen - Tenor Sax'


 Intro
  Q=108
  Bb                Gm
 12/8
  Gtr I (El. Gtr.)
   H.                H.
|-^6----------------^3-------------------------|
|-^6----------------^3-------------------------|
|-^7----------------^3-------------------------|
|-^8----------------^5-------------------------|
|-^8----------------^5-------------------------|
|-^6----------------^3-------------------------|
|
| Gtr II (El. Gtr.)
|  E  S S E E E E    E  S S   E  E       E   E
|--6--6-6-6-6-6-6----3--3-3---3--3-------3---3-|
|--6--6-6-6-6-6-6----3--3-3---3--3-------3---3-|
|--7--7-7-7-7-7-7----3--3-3---4--3-------3---3-|
|--8--8-8-8-8-8-8----5--5-5---5--5-------5---5-|
|--8--8-8-8-8-8-8----5--5-5---5--5-------5---5-|
|--6--6-6-6-6-6-6----3--3-3---3--3-------3---3-|
|
| Gtr III (Sax. arr. for Gtr.)
|  Q      E Q   E a  Q      a E +S  a E.   a E
|----------------------------------------------|
|----------------------------------------------|
|----------------------------------------------|
|---------------3-3h=5------3h5-(5)-3h5----3h5-|
|---------3-5----------------------------------|
|----------------------------------------------|


  Cm              Ebm7                Dm7
   H.              H.                  W.
|-^3--------------^6----------------|-^5------------------------------------------|
|-^4--------------^7----------------|-^6------------------------------------------|
|-^5--------------^6----------------|-^5------------------------------------------|
|-^5--------------^8----------------|-^7------------------------------------------|
|-^3--------------^6----------------|-^5------------------------------------------|
|-----------------------------------|---------------------------------------------|
|
|  E  S S E E E E  E  S S E  E  E E    E    S S E   E   E   E   E   S S E   E E E
|--3--3-3-3-3-3-3--6--6-6-6--6--6-6-|--5----5-5-5---5---5---5---5---5-5-5---5-5-5-|
|--4--4-4-4-4-4-4--7--7-7-7--7--7-7-|--6----6-6-6---6---6---6---6---6-6-6---6-6-6-|
|--5--5-5-5-5-5-5--6--6-6-6--6--6-6-|--5----5-5-5---5---5---5---5---5-5-5---5-5-5-|
|--5--5-5-5-5-5-5--8--8-8-8--8--8-8-|--7----7-7-7---7---7---7---7---7-7-7---7-7-7-|
|--3--3-3-3-3-3-3--6--6-6-6--6--6-6-|--5----5-5-5---5---5---5---5---5-5-5---5-5-5-|
|-----------------------------------|---------------------------------------------|
|
|  Q      E Q   E  E  E   E +E  Q      S  S S S S S S S S S S S S S S S S S Q   E
|-----------------------------------|---------------------------------------------|
|-----------------------------------|---------------------------------------------|
|-----------------------------------|---------------------------------------------|
|--5---------------4--3---4-(4)-----|--7--6-5---7-6-5---7-6-5---7-6-5-----5-5-----|
|---------6-5---3-------------------|---------8-------8-------8-------8---------5-|
|-----------------------------------|---------------------------------------------|


                                        1st, 2nd & 4th Verses
                                     $$
  Cm7               F                    Bb              Gm
   H.                H.                   H.              H.
|-^3----------------^1---------------||--^6--------------^3--------------|
|-^4----------------^1---------------||o-^6--------------^3--------------|
|-^3----------------^2---------------||--^7--------------^3--------------|
|-^5----------------^3---------------||--^8--------------^5--------------|
|-^3----------------^3---------------||o-^8--------------^5--------------|
|-------------------^1---------------||--^6--------------^3--------------|
|
|  E  S S E  E  E E  E  S S E E  E E      E  S S E E E E  E  S S E E E E
|--3--3-3-3--3--3-3--1--1-1-1-1--1-1-||---6--6-6-6-6-6-6--3--3-3-3-3-3-3-|
|--4--4-4-4--4--4-4--1--1-1-1-1--1-1-||o--6--6-6-6-6-6-6--3--3-3-3-3-3-3-|
|--3--3-3-3--3--3-3--2--2-2-2-2--2-2-||---7--7-7-7-7-7-7--3--3-3-4-3-3-3-|
|--5--5-5-5--5--5-5--3--3-3-3-3--3-3-||---8--8-8-8-8-8-8--5--5-5-5-5-5-5-|
|--3--3-3-3--3--3-3--3--3-3-3-3--3-3-||o--8--8-8-8-8-8-8--5--5-5-5-5-5-5-|
|--------------------1--1-1-1-1--1-1-||---6--6-6-6-6-6-6--3--3-3-3-3-3-3-|
|
|  Q      E +Q.      Q.       Q.          W
|------------------------------------||----------------------------------|
|------------------------------------||o---------------------------------|
|------------------------------------||----------------------------------|
|--3------2-(2)----------------------||----------------------------------|
|--------------------5--------3------||o---------------------------------|
|------------------------------------||----------------------------------|


  Dm7                       Dbm7
   H.              Q.        Q.
|-^5--------------^5--------^4--------|
|-^6--------------^6--------^5--------|
|-^5--------------^5--------^4--------|
|-^7--------------^7--------^6--------|
|-^5--------------^5--------^4--------|
|-------------------------------------|
|
|  E  S S E E E E  E  S S E  E  E E
|--5--5-5-5-5-5-5--5--5-5-5--4--4-4---|
|--6--6-6-6-6-6-6--6--6-6-6--5--5-5---|
|--5--5-5-5-5-5-5--5--5-5-5--4--4-4---|
|--7--7-7-7-7-7-7--7--7-7-7--6--6-6---|
|--5--5-5-5-5-5-5--5--5-5-5--4--4-4---|
|-------------------------------------|
|
|  W
|-------------------------------------|
|-------------------------------------|
|-------------------------------------|
|-------------------------------------|
|-------------------------------------|
|-------------------------------------|


  Cm7             F                 Bb              Gm
   H.              H.                H.              H.
|-^3--------------^1--------------|-^6--------------^3--------------|
|-^4--------------^1--------------|-^6--------------^3--------------|
|-^3--------------^2--------------|-^7--------------^3--------------|
|-^5--------------^3--------------|-^8--------------^5--------------|
|-^3--------------^3--------------|-^8--------------^5--------------|
|-----------------^1--------------|-^6--------------^3--------------|
|
|  E  S S E E E E  E  S S E E E E    E  S S E E E E  E  S S E E E E
|--3--3-3-3-3-3-3--1--1-1-1-1-1-1-|--6--6-6-6-6-6-6--3--3-3-3-3-3-3-|
|--4--4-4-4-4-4-4--1--1-1-1-1-1-1-|--6--6-6-6-6-6-6--3--3-3-3-3-3-3-|
|--3--3-3-3-3-3-3--2--2-2-2-2-2-2-|--7--7-7-7-7-7-7--3--3-3-4-3-3-3-|
|--5--5-5-5-5-5-5--3--3-3-3-3-3-3-|--8--8-8-8-8-8-8--5--5-5-5-5-5-5-|
|--3--3-3-3-3-3-3--3--3-3-3-3-3-3-|--8--8-8-8-8-8-8--5--5-5-5-5-5-5-|
|------------------1--1-1-1-1-1-1-|--6--6-6-6-6-6-6--3--3-3-3-3-3-3-|


  Cm7             F
   H.              H.
|-^3--------------^1----------------|
|-^4--------------^1----------------|
|-^3--------------^2----------------|
|-^5--------------^3----------------|
|-^3--------------^3----------------|
|-----------------^1----------------|
|
|  E  S S E E E E  E  S S E E E E
|--3--3-3-3-3-3-3--1--1-1-1-1-1-1---|
|--4--4-4-4-4-4-4--1--1-1-1-1-1-1---|
|--3--3-3-3-3-3-3--2--2-2-2-2-2-2---|
|--5--5-5-5-5-5-5--3--3-3-3-3-3-3---|
|--3--3-3-3-3-3-3--3--3-3-3-3-3-3---|
|------------------1--1-1-1-1-1-1---|


                      To Dbl. Coda
  D7b9            Gm
   H.              H.
|-----------------^3---------------|
|-^4--------------^3---------------|
|-^5--------------^3---------------|
|-^4--------------^5---------------|
|-^5--------------^5---------------|
|-----------------^3---------------|
|
|  E  S S E E E E  E  S S E E E E
|------------------3--3-3-3-3-3-3--|
|--4--4-4-4-4-4-4--3--3-3-3-3-3-3--|
|--5--5-5-5-5-5-5--3--3-3-4-3-3-3--|
|--4--4-4-4-4-4-4--5--5-5-5-5-5-5--|
|--5--5-5-5-5-5-5--5--5-5-5-5-5-5--|
|------------------3--3-3-3-3-3-3--|


 1.
  Ebm7                          F7
  E E   E E E E E E   E E E E   E E   E E E E E E   E E E E
|-6-------8-----6-------6-----|-------------------------------||
|---7-------7-----7-------7---|---------6-------------6------o||
|-------6-----6-------6-----6-|-------8---8---------8---8-----||
|-----------------------------|---7---------7---7---------7---||
|-----------------------------|-8-------------8--------------o||
|-----------------------------|-------------------------------||
|
| E S S E E E E E S S E E E E   E S S E E E E E S S E E E E
|-6-6-6-6-6-6-6-6-6-6-6-6-6-6-|-------------------------------||
|-7-7-7-7-7-7-7-7-7-7-7-7-7-7-|-6-6-6-6-6-6-6-6-6-6-6-6-6-6--o||
|-6-6-6-6-6-6-6-6-6-6-6-6-6-6-|-8-8-8-8-8-8-8-8-8-8-8-8-8-8---||
|-8-8-8-8-8-8-8-8-8-8-8-8-8-8-|-7-7-7-7-7-7-7-7-7-7-7-7-7-7---||
|-6-6-6-6-6-6-6-6-6-6-6-6-6-6-|-8-8-8-8-8-8-8-8-8-8-8-8-8-8--o||
|-----------------------------|-------------------------------||


  2.
  Ebm             F                        Bb
   H.               H.                     E E   E E E E E E   E E E E
|-^6--------------^-8--------------------|---------6-------------6------||
|-^7--------------^10--------------------|-------6---6---------6---6----||
|-^8--------------^10--------------------|---7---------7---7---------7--||
|-^8--------------^10--------------------|-8-------------8--------------||
|-^6--------------^-8--------------------|------------------------------||
|----------------------------------------|------------------------------||
|
|  E  S S E E E E   E   S  S  E  E  E  E   E S S E E E E E S S E E E E
|--6--6-6-6-6-6-6------------------------|-6-6-6-6-6-6-6-6-6-6-6-6-6-6--||
|--7--7-7-7-7-7-7--10--10-10-10-10-10-10-|-6-6-6-6-6-6-6-6-6-6-6-6-6-6--||
|--8--8-8-8-8-8-8--10--10-10-10-10-10-10-|-7-7-7-7-7-7-7-7-7-7-7-7-7-7--||
|--8--8-8-8-8-8-8--10--10-10-10-10-10-10-|-8-8-8-8-8-8-8-8-8-8-8-8-8-8--||
|--6--6-6-6-6-6-6---8---8--8--8--8--8--8-|-8-8-8-8-8-8-8-8-8-8-8-8-8-8--||
|----------------------------------------|-6-6-6-6-6-6-6-6-6-6-6-6-6-6--||


 Bridge 1
  Cm7                   F9              Bb            Gm
   H.                   E E   E E E E   E E   E E E E E E   E E E E
|-^8----------------------------8-----|---------6-------------3-----|
|-^8--------------------------8---8---|-------6---6---------3---3---|
|-^8----------------------8---------8-|---7---------7---3---------3-|
|-^8--------------------7-------------|-8-------------5-------------|
|-------------------------------------|-----------------------------|
|-------------------------------------|-----------------------------|
|
|  E   S  S  E  E  E  E E S S E E E E   E S S E E E E E S S E E E E
|--8---8--8--8--8--8--8-8-8-8-8-8-8-8-|-6-6-6-6-6-6-6-3-3-3-3-3-3-3-|
|--8---8--8--8--8--8--8-8-8-8-8-8-8-8-|-6-6-6-6-6-6-6-3-3-3-3-3-3-3-|
|--8---8--8--8--8--8--8-8-8-8-8-8-8-8-|-7-7-7-7-7-7-7-3-3-3-4-3-3-3-|
|--8---8--8--8--8--8--8-7-7-7-7-7-7-7-|-8-8-8-8-8-8-8-5-5-5-5-5-5-5-|
|-10--10-10-10-10-10-10-8-8-8-8-8-8-8-|-8-8-8-8-8-8-8-5-5-5-5-5-5-5-|
|--8---8--8--8--8--8--8---------------|-6-6-6-6-6-6-6-3-3-3-3-3-3-3-|


  Cm7                  F9
   E  E     E  E  E  E E E   E E E E
|--------------8---------------8-------|
|-----------8-----8----------8---8-----|
|-----8--------------8---8---------8---|
|--8-------------------7---------------|
|--------------------------------------|
|--------------------------------------|
|
|  E  S  S  E  E  E  E E S S E E E E
|--8--8--8--8--8--8--8-8-8-8-8-8-8-8---|
|--8--8--8--8--8--8--8-8-8-8-8-8-8-8---|
|--8--8--8--8--8--8--8-8-8-8-8-8-8-8---|
|--8--8--8--8--8--8--8-7-7-7-7-7-7-7---|
|-10-10-10-10-10-10-10-8-8-8-8-8-8-8---|
|--8--8--8--8--8--8--8-----------------|


                                Bridge 2
                              $
  Bb                             A7
  E E   E E E E E E   E E E E    E E   E E E E E E   E E E E
|---------6-------------6-----||---------5-------------5-----|
|-------6---6---------6---6---||-----------5-------------5---|
|---7---------7---7---------7-||-------6-----6-------6-----6-|
|-8-------------8-------------||---5-------------5-----------|
|-----------------------------||-----------------------------|
|-----------------------------||-5-------------5-------------|
|
| E S S E E E E E S S E E E E    E S S E E E E E S S E E E E
|-6-6-6-6-6-6-6-6-6-6-6-6-6-6-||-5-5-5-5-5-5-5-5-5-5-5-5-5-5-|
|-6-6-6-6-6-6-6-6-6-6-6-6-6-6-||-5-5-5-5-5-5-5-5-5-5-5-5-5-5-|
|-7-7-7-7-7-7-7-7-7-7-7-7-7-7-||-6-6-6-6-6-6-6-6-6-6-6-6-6-6-|
|-8-8-8-8-8-8-8-8-8-8-8-8-8-8-||-5-5-5-5-5-5-5-5-5-5-5-5-5-5-|
|-8-8-8-8-8-8-8-8-8-8-8-8-8-8-||-7-7-7-7-7-7-7-7-7-7-7-7-7-7-|
|-6-6-6-6-6-6-6-6-6-6-6-6-6-6-||-5-5-5-5-5-5-5-5-5-5-5-5-5-5-|


  Dm7
  E S S E E E E E S S E E E E
|---------5-------------5-------|
|-------6---6---------6---6-----|
|-----5-------5-----5-------5---|
|---7-------------7-------------|
|-5-------------5---------------|
|-------------------------------|
|
| E S S E E E E E S S E E E E
|-5-5-5-5-5-5-5-5-5-5-5-5-5-5---|
|-6-6-6-6-6-6-6-6-6-6-6-6-6-6---|
|-5-5-5-5-5-5-5-5-5-5-5-5-5-5---|
|-7-7-7-7-7-7-7-7-7-7-7-7-7-7---|
|-5-5-5-5-5-5-5-5-5-5-5-5-5-5---|
|-------------------------------|


                       To Coda
  Cm7                            F
  E E   E E E E E E   E E E E    E E   E E E E E E   E E E E
|---------3-------------3------|---------1-------------1-----||
|-----------4-------------4----|-------1---1---------1---1---||
|-------3-----3-------3-----3--|---2---------2---2---------2-||
|---5-------------5------------|-3-------------3-------------||
|-3-------------3--------------|-----------------------------||
|------------------------------|-----------------------------||
|
| E S S E E E E E S S E E E E    E S S E E E E E S S E E E E
|-3-3-3-3-3-3-3-3-3-3-3-3-3-3--|-1-1-1-1-1-1-1-1-1-1-1-1-1-1-||
|-4-4-4-4-4-4-4-4-4-4-4-4-4-4--|-1-1-1-1-1-1-1-1-1-1-1-1-1-1-||
|-3-3-3-3-3-3-3-3-3-3-3-3-3-3--|-2-2-2-2-2-2-2-2-2-2-2-2-2-2-||
|-5-5-5-5-5-5-5-5-5-5-5-5-5-5--|-3-3-3-3-3-3-3-3-3-3-3-3-3-3-||
|-3-3-3-3-3-3-3-3-3-3-3-3-3-3--|-3-3-3-3-3-3-3-3-3-3-3-3-3-3-||
|------------------------------|-1-1-1-1-1-1-1-1-1-1-1-1-1-1-||


 3rd Verse
  Bb              Gm                Dm7                       Dbm7
   H.              H.                H.              Q.        Q.
|-^6--------------^3--------------|-^5--------------^5--------^4-------|
|-^6--------------^3--------------|-^6--------------^6--------^5-------|
|-^7--------------^3--------------|-^5--------------^5--------^4-------|
|-^8--------------^5--------------|-^7--------------^7--------^6-------|
|-^8--------------^5--------------|-^5--------------^5--------^4-------|
|-^6--------------^3--------------|------------------------------------|
|
|  E  S S E E E E  E  S S E E E E    E  S S E E E E  E  S S E  E  E E
|--6--6-6-6-6-6-6--3--3-3-3-3-3-3-|--5--5-5-5-5-5-5--5--5-5-5--4--4-4--|
|--6--6-6-6-6-6-6--3--3-3-3-3-3-3-|--6--6-6-6-6-6-6--6--6-6-6--5--5-5--|
|--7--7-7-7-7-7-7--3--3-3-4-3-3-3-|--5--5-5-5-5-5-5--5--5-5-5--4--4-4--|
|--8--8-8-8-8-8-8--5--5-5-5-5-5-5-|--7--7-7-7-7-7-7--7--7-7-7--6--6-6--|
|--8--8-8-8-8-8-8--5--5-5-5-5-5-5-|--5--5-5-5-5-5-5--5--5-5-5--4--4-4--|
|--6--6-6-6-6-6-6--3--3-3-3-3-3-3-|------------------------------------|


  Cm7             F                 Bb              Gm
   H.              H.                H.              H.
|-^3--------------^1--------------|-^6--------------^3--------------|
|-^4--------------^1--------------|-^6--------------^3--------------|
|-^3--------------^2--------------|-^7--------------^3--------------|
|-^5--------------^3--------------|-^8--------------^5--------------|
|-^3--------------^3--------------|-^8--------------^5--------------|
|-----------------^1--------------|-^6--------------^3--------------|
|
|  E  S S E E E E  E  S S E E E E    E  S S E E E E  E  S S E E E E
|--3--3-3-3-3-3-3--1--1-1-1-1-1-1-|--6--6-6-6-6-6-6--3--3-3-3-3-3-3-|
|--4--4-4-4-4-4-4--1--1-1-1-1-1-1-|--6--6-6-6-6-6-6--3--3-3-3-3-3-3-|
|--3--3-3-3-3-3-3--2--2-2-2-2-2-2-|--7--7-7-7-7-7-7--3--3-3-4-3-3-3-|
|--5--5-5-5-5-5-5--3--3-3-3-3-3-3-|--8--8-8-8-8-8-8--5--5-5-5-5-5-5-|
|--3--3-3-3-3-3-3--3--3-3-3-3-3-3-|--8--8-8-8-8-8-8--5--5-5-5-5-5-5-|
|------------------1--1-1-1-1-1-1-|--6--6-6-6-6-6-6--3--3-3-3-3-3-3-|


  Cm7             F
   H.              H.
|-^3--------------^1----------------|
|-^4--------------^1----------------|
|-^3--------------^2----------------|
|-^5--------------^3----------------|
|-^3--------------^3----------------|
|-----------------^1----------------|
|
|  E  S S E E E E  E  S S E E E E
|--3--3-3-3-3-3-3--1--1-1-1-1-1-1---|
|--4--4-4-4-4-4-4--1--1-1-1-1-1-1---|
|--3--3-3-3-3-3-3--2--2-2-2-2-2-2---|
|--5--5-5-5-5-5-5--3--3-3-3-3-3-3---|
|--3--3-3-3-3-3-3--3--3-3-3-3-3-3---|
|------------------1--1-1-1-1-1-1---|


  D7b9            Gm
   H.              H.
|-----------------^3--------------|
|-^4--------------^3--------------|
|-^5--------------^3--------------|
|-^4--------------^5--------------|
|-^5--------------^5--------------|
|-----------------^3--------------|
|
|  E  S S E E E E  E  S S E E E E
|------------------3--3-3-3-3-3-3-|
|--4--4-4-4-4-4-4--3--3-3-3-3-3-3-|
|--5--5-5-5-5-5-5--3--3-3-4-3-3-3-|
|--4--4-4-4-4-4-4--5--5-5-5-5-5-5-|
|--5--5-5-5-5-5-5--5--5-5-5-5-5-5-|
|------------------3--3-3-3-3-3-3-|


  Ebm7          F7              Bb
  E E   E E E E E E   E E E E   E E   E E E E E E   E E E E
|-6---------6-----------------|---------6---------------------||
|---7---------7---------6-----|-------6---6---------6-6---6---||
|-------8-------------8---8---|---7---------7---7-----7---7---||
|-----------------7---------7-|-8-------------8-------8---8---||
|---------6-----8-------------|-------------------------------||
|-----------------------------|-------------------------------||
|
| E S S E E E E E S S E E E E   E S S E E E E E S S E E E E
|-6-6-6-6-6-6-6---------------|-6-6-6-6-6-6-6-6-6-6-6-6-6-6---||
|-7-7-7-7-7-7-7-6-6-6-6-6-6-6-|-6-6-6-6-6-6-6-6-6-6-6-6-6-6---||
|-6-6-6-6-6-6-6-8-8-8-8-8-8-8-|-7-7-7-7-7-7-7-7-7-7-7-7-7-7---||
|-8-8-8-8-8-8-8-7-7-7-7-7-7-7-|-8-8-8-8-8-8-8-8-8-8-8-8-8-8---||
|-6-6-6-6-6-6-6-8-8-8-8-8-8-8-|-8-8-8-8-8-8-8-8-8-8-8-8-8-8---||
|-----------------------------|-6-6-6-6-6-6-6-6-6-6-6-6-6-6---||


 Sax Solo
  Cm7               F7
   H.                 Q.            E   E  E
|-^8----------------^-8-----------------8----------|
|-^8----------------^10----------------10----------|
|-^8----------------^-8-----------------8----------|
|-^8----------------^10----------------10----------|
|--------------------------------------------------|
|--------------------------------------------------|
|
|  E  S S E  E E  E   E   S  S  E   E   E  E
|--3--3-3-3--3-3--3---8---8--8--8---8---8--8-------|
|--4--4-4-4--4-4--4--10--10-10-10--10--10-10-------|
|--3--3-3-3--3-3--3---8---8--8--8---8---8--8-------|
|--5--5-5-5--5-5--5--10--10-10-10--10--10-10-------|
|--3--3-3-3--3-3--3---8---8--8--8---8---8--8-------|
|--------------------------------------------------|
|
| Gtr III
|                                          |--3--|
|  Q.        Q    E   Q         E  +Q      S  S  S
|--------------------------------------------------|
|-----------------------------------------13-------|
|-12--------12---15--14--------14-(14)-------14-12-|
|--------------------------------------------------|
|--------------------------------------------------|
|--------------------------------------------------|


  Bb                  Gm                 Cm7                F7
   Q.          E  E E  Q.       E  E E    H.                 H.
|-^6-----------6------^3--------3------|-^3-----------------^5----------------------------|
|-^6--------------6---^3-----------3---|-^4-----------------^4----------------------------|
|-^7----------------7-^3-------------3-|-^3-----------------^5----------------------------|
|-^8------------------^5---------------|-^5-----------------^3----------------------------|
|--------------------------------------|--------------------------------------------------|
|--------------------------------------|--------------------------------------------------|
|
|  E   S S E   E  E E  E  S S E E  E E    E  S S  E  E E  E  E   S  S  E   E   E  E
|--6---6-6-6---6--6-6--3--3-3-3-3--3-3-|--3--3-3--3--3-3--3--8---8--8--8---8---8--8-------|
|--6---6-6-6---6--6-6--3--3-3-3-3--3-3-|--4--4-4--4--4-4--4-10--10-10-10--10--10-10-------|
|--7---7-7-7---7--7-7--3--3-3-3-3--3-3-|--3--3-3--3--3-3--3--8---8--8--8---8---8--8-------|
|--8---8-8-8---8--8-8--5--5-5-5-5--5-5-|--5--5-5--5--5-5--5-10--10-10-10--10--10-10-------|
|--8---8-8-8---8--8-8--5--5-5-5-5--5-5-|--3--3-3--3--3-3--3--8---8--8--8---8---8--8-------|
|--------------------------------------|--------------------------------------------------|
|
|  E   Q      +Q.      Q.       Q.        Q       E  Q    E  Q.           +Q      S  S
|--------------------------------------|--------------------------------------------------|
|--------------------------------------|-----------------------------------------13-------|
|---------------------12\--------------|-12------12-12---12-14-----------(14)-------14----|
|-15--15-----(15)----------------------|--------------------------------------------------|
|--------------------------------------|--------------------------------------------------|
|--------------------------------------|--------------------------------------------------|


                         D.S. al Coda &           D.S.S. al Dbl. Coda
  Bb                                     F
   Q.          E  E E E E   E E  E E     E E   E E E E E E   E E E E
|-^6--------------6-----------6-------||-----------------1------------||
|-^6----------------6-------6----6----||---------1---1-------1---1----||
|-^7-----------7--------7----------7--||-------2---2---2-------2------||
|-^8------------------8---------------||---3-----------------------3--||
|-^8----------------------------------||------------------------------||
|-------------------------------------||-1----------------------------||
|
|  E   S S  E  E  E E E S S E E  E E     E S S E E E E E S S E E E E
|--6---6-6--6--6--6-6-6-6-6-6-6--6-6--||-1-1-1-1-1-1-1-1-1-1-1-1-1-1--||
|--6---6-6--6--6--6-6-6-6-6-6-6--6-6--||-1-1-1-1-1-1-1-1-1-1-1-1-1-1--||
|--7---7-7--7--7--7-7-7-7-7-7-7--7-7--||-2-2-2-2-2-2-2-2-2-2-2-2-2-2--||
|--8---8-8--8--8--8-8-8-8-8-8-8--8-8--||-3-3-3-3-3-3-3-3-3-3-3-3-3-3--||
|--8---8-8--8--8--8-8-8-8-8-8-8--8-8--||-3-3-3-3-3-3-3-3-3-3-3-3-3-3--||
|-------------------------------------||-1-1-1-1-1-1-1-1-1-1-1-1-1-1--||
|
|  E   E    E  H.             Q.         W
|-------------------------------------||------------------------------||
|-------------------------------------||------------------------------||
|-12--14---12-------------------------||------------------------------||
|-------------15----------------------||------------------------------||
|-------------------------------------||------------------------------||
|-------------------------------------||------------------------------||


  &&
  Ebm7                          F7
  E E   E E E E E E   E E E E   E E   E E E E E E   E E E E
|-6-------6-----6-------6-----|------------------------------||
|---7-------7-----7-------7---|---------6-------------6------||
|-------6-----6-------6-----6-|-------8---8---------8---8----||
|-----------------------------|---7---------7---7---------7--||
|-----------------------------|-8-------------8--------------||
|-----------------------------|------------------------------||
|
| E S S E E E E E S S E E E E   E S S E E E E E S S E E E E
|-6-6-6-6-6-6-6-6-6-6-6-6-6-6-|------------------------------||
|-7-7-7-7-7-7-7-7-7-7-7-7-7-7-|-6-6-6-6-6-6-6-6-6-6-6-6-6-6--||
|-6-6-6-6-6-6-6-6-6-6-6-6-6-6-|-8-8-8-8-8-8-8-8-8-8-8-8-8-8--||
|-8-8-8-8-8-8-8-8-8-8-8-8-8-8-|-7-7-7-7-7-7-7-7-7-7-7-7-7-7--||
|-6-6-6-6-6-6-6-6-6-6-6-6-6-6-|-8-8-8-8-8-8-8-8-8-8-8-8-8-8--||
|-----------------------------|------------------------------||


 Outro
  Bb            Ab7             Gm
  E E   E E E E E E   E E E E   E E   E E E E E E   E E E E
|-6-6---6-6-6-6-4-4---4-4-4-4-|-3-3---3-3-3-3-3-3---3-3-3-3-|
|-6-6---6-6-6-6-4-4---4-4-4-4-|-3-3---3-3-3-3-3-3---3-3-3-3-|
|-7-7---7-7-7-7-5-5---5-5-5-5-|-3-3---3-3-3-3-3-3---3-3-3-3-|
|-8-8---8-8-8-8-4-4---4-4-4-4-|-5-5---5-5-5-5-5-5---5-5-5-5-|
|-8-8---8-8-8-8-6-6---6-6-6-6-|-5-5---5-5-5-5-5-5---5-5-5-5-|
|-6-6---6-6-6-6-4-4---4-4-4-4-|-3-3---3-3-3-3-3-3---3-3-3-3-|
|
| E S S E E E E E S S E E E E   E S S E E E E E S S E E E E
|-6-6-6-6-6-6-6-4-4-4-4-4-4-4-|-3-3-3-3-3-3-3-3-3-3-3-3-3-3-|
|-6-6-6-6-6-6-6-4-4-4-4-4-4-4-|-3-3-3-3-3-3-3-3-3-3-3-3-3-3-|
|-7-7-7-7-7-7-7-5-5-5-5-5-5-5-|-3-3-3-4-3-3-3-3-3-3-4-3-3-3-|
|-8-8-8-8-8-8-8-4-4-4-4-4-4-4-|-5-5-5-5-5-5-5-5-5-5-5-5-5-5-|
|-8-8-8-8-8-8-8-6-6-6-6-6-6-6-|-5-5-5-5-5-5-5-5-5-5-5-5-5-5-|
|-6-6-6-6-6-6-6-4-4-4-4-4-4-4-|-3-3-3-3-3-3-3-3-3-3-3-3-3-3-|


  Cm     Dm     Eb     Em7b5
  Q.     Q.     Q.     Q.
|-3------5---------------------|
|-4------6------8------8-------|
|-5------7------8------7-------|
|-5------7------8------8-------|
|-3------5------6------7-------|
|------------------------------|
|
| E  E E E  E E E  E E E  E E
|-3--3-3-5--5-5----------------|
|-4--4-4-6--6-6-8--8-8-8--8-8--|
|-5--5-5-7--7-7-8--8-8-7--7-7--|
|-5--5-5-7--7-7-8--8-8-8--8-8--|
|-3--3-3-5--5-5-6--6-6-7--7-7--|
|------------------------------|


                                H.=H
  F7     Eb     Dm     F7/C     Bb            Ebm7            Bb6sus2
  Q.     Q.     Q.     Q.       E E   E E E E E E   E E E E    W.
|--------6------5------5------|-6-6---6-6-6-6-----------6---|-^6-----*|
|-6------8------6------4------|-6-6---6-6-6-6---------7---7-|-^6-----*|
|-8------8------7------5------|-7-7---7-7-7-7-------6-------|-^5-----*|
|-7------8------7-------------|-8-8---8-8-8-8---8-----------|-^5-----*|
|-8------6------5------3------|-8-8---8-8-8-8-6-------------|--------*|
|-----------------------------|-6-6---6-6-6-6---------------|-^6-----*|
|
| E  E E E  E E E  E E E  E E   E S S E E E E E S S E E E E    W.
|---------------5--5-5-5--5-5-|-6-6-6-6-6-6-6-6-6-6-6-6-6-6-|-^6-----*|
|-6--6-6-8--8-8-6--6-6-4--4-4-|-6-6-6-6-6-6-6-7-7-7-7-7-7-7-|-^6-----*|
|-8--8-8-8--8-8-7--7-7-5--5-5-|-7-7-7-7-7-7-7-6-6-6-6-6-6-6-|-^5-----*|
|-7--7-7-8--8-8-7--7-7--------|-8-8-8-8-8-8-8-8-8-8-8-8-8-8-|-^5-----*|
|-8--8-8-6--6-6-5--5-5-3--3-3-|-8-8-8-8-8-8-8-6-6-6-6-6-6-6-|--------*|
|-----------------------------|-6-6-6-6-6-6-6---------------|-^6-----*|


Duration Legend
---------------
W - whole; H - half; Q - quarter; E - 8th; S - 16th; T - 32nd; X - 64th; a - acciaccatura
+ - note tied to previous; . - note dotted; .. - note double dotted
Uncapitalized letters represent notes that are staccato (1/2 duration)
Irregular groupings are notated above the duration line
Duration letters will always appear directly above the note/fret number it represents the
duration for.  Duration letters with no fret number below them represent rests.  Multi-
bar rests are notated in the form Wxn, where n is the number of bars to rest for.  Low
melody durations appear below the staff

Tablature Legend
----------------
 h   - hammer-on
 p   - pull-off
 b   - bend
 pb  - pre-bend
 r   - bend release (if no number after the r, then release immediately)
 /\  - slide into or out of (from/to "nowhere")
 s   - legato slide
 S   - shift slide
  - natural harmonic
[n]  - artificial harmonic
n(n) - tapped harmonic
 ~   - vibrato
 tr  - trill
 T   - tap
 TP  - trem. picking
 PM  - palm muting
\n/  - tremolo bar dip; n = amount to dip
 \n  - tremolo bar down
 n/  - tremolo bar up
/n\  - tremolo bar inverted dip
 =   - hold bend; also acts as connecting device for hammers/pulls
 <>  - volume swell (louder/softer)
 x   - on rhythm slash represents muted slash
 o   - on rhythm slash represents single note slash

Misc Legend
-----------
 |  - bar
||  - double bar
||o - repeat start
o|| - repeat end
*|  - double bar (ending)
 :  - bar (freetime)
 $  - Segno
 &  - Coda
Tempo markers -  = BPM(8/16=s8/s16), where s8 = swing 8ths, s16 = swing 16ths

Добавлено: 05.09.2015
Вам также может быть интересно:
Другие материалы по этой песне:

Страница создана 18.10.2014
http://primanota.ru/stray-cats/lonely-summer-nights-chords.htm
Привет, Гость.
Предлагаем пройти революционный курс по гитаре.
Подарок от PrimaNota.Ru, забирай!