PrimaNota.ru - самый крупный в мире бесплатный архив песенных текстов, аккордов, табулатур и нот


Stray Cats - Be-bop-a-lula - таба, бас-таба, видео

Регистрация Запомнить меня
Войти через:  Facebook Google Twitter Vk Yandex Mail.ru

Stray Cats - Be-bop-a-lula - таба, бас-таба, видео

Печатать
Просмотров: 143
Авторы: Tex Davis, Gene Vincent

Stray Cats - Be-Bop-A-Lula
Album: Original Cool
Tablatura por Aldo Alain

Intro 0:00
|----------------------------------------------------------------------------|
|---------------------------------------------------------------0------------|
|---------------------------------------------------------------1------------|
|-0h2~--0--------0h2-0h2-------0-2-0h2~---0--------0h2-0h2---2--2------------|
|---------2----------------0-2--------------2----------------2---------------|
|-----------3b--------------------------------3b-------------0---------------|

Verse 00:24
|----------------0---------0-----------------------------------2--2-2--0-0---|
|----------------1-2-------0-------1-2-------------------------0--0-0--0-0---|
|---------1------2-------0-1-------2----5-4--------------------2--2-2--0-0---|
|-----0-2--------2-------0-2-------1----6-5-------------------------1----1---|
|-----2----------0---------2-------2----6-5--------------0-1-2-----------2---|
|-----0--------------------0------------6-5------------------------------0---|

                                          Chorus 1:06
|-------0-0----------0-0------------0-0--|------------------------------------|
|-------0-0--------2-0-0----------2-0-0--|------------------------------------|
|---0-2---1------0-2---1--------0-2---1--|----------------------2-------------|
|---0-2---2------0-2---2--------0-2---2--|----------2-5p4-2----------------2--|
|---------2------------2--------------2--|--0-0-3h4---------3h4----0-0-3h4----|
|---------0------------0--------------0--|------------------------------------|

|----------------------------------------------------------------------------|
|-------------------------------------------------------------0-----0--------|
|----------------------------------------------------------------------------|
|-5p4-2-----2----------------------2----------------------0-----0h1---4------|
|-------3h4------------2-5p4-2----------------2-5p4-2-------2-----------5p4-2|
|--------------0-0-3h4---------3h4----0-0-3h4---------3h4--------------------|

                                                      Solo 1:22
|----------------------------------------------------|--0-----12--------------|
|--------------------------------------------------0-|--0----------12---------|
|-------2------------------------------------------2-|--0--------9----9\------|
|---------5p4-2-----2----------------------2-------1-|------------------------|
|-0-3h4---------3h4------------2-5p4-2---------0-1-2-|------------------------|
|----------------------0-0-3h4---------3h4---3-------|----/12-----------------|

|-------------------------------------x-12----------11/12----12-12-----------|
|-----12------------------------------x-12---12-14--11/12-14--------11h12h14-|
|--------12------------------------------------------------------------------|
|-/14-------14-14\-----------------------------------------------------------|
|----------------------------------------------------------------------------|
|-------------------3-7/12---------------------------------------------------|

|-12-12-x-14/15-14-12---12b---------------12-14b-14b-14r-12------------------|
|-------x-14/15-14-12-x-12b-x--12\--12h14-------------------14b-14b-14r-12---|
|---------------------x-12b-x--12\-------------------------------------------|
|----------------------------------------------------------------------------|
|----------------------------------------------------------------------------|
|----------------------------------------------------------------------------|

|------------------------------14--14---------12-14b--14r-12-----------------|
|-------------------12-14--14b-14b-14r-12-14-----------------14b-12-------12-|
|-14b-14b-14r-12----12----------------------------------------------10/13----|
|----------------14----------------------------------------------------------|
|----------------------------------------------------------------------------|
|----------------------------------------------------------------------------|

|------------------------------------------------------------8/9-------------|
|----11----10---9---10---11---12----11----10---9---10------x-8/9-x--9--------|
|-12----11----9---x---(9)--(9)---12----11----9---x----11\--x-8/9-x--9-9-x----|
|------------------------------------------------------------------11-9-x----|
|----------------------------------------------------------------------------|
|----------------------------------------------------------------------------|

|------------------------12------------------12--------10------9-----7-------|
|------------9-----------12---12-14------------------------------------------|
|--8/-9--9-x-9-----------13---------13-12/13-----13-11----11-9---9-7---------|
|-10/11--9-x-9---------------------------------------------------------9\----|
|----------------------------------------------------------------------------|
|---------------2-2/12-------------------------------------------------------|

|----------------------------------------------------------------------------|
|--7--7/8---7--8---8\-7/-8---------------------------------------------------|
|-----8/9---8--9---9\-8/-9--9------9-11b-11b-11r-9---------------------------|
|----10/11-10-11--11\10/11----9h11------------------11b-11b-11r-9------------|
|-----------------------------------------------------------------12b-12b-12r|
|----------------------------------------------------------------------------|

|----------------------------------------------------------------------------|
|----------------------------------------------------------------------------|
|----------------10/11-10/11--11\-9------9-11/12-9-11-9---6--4----4-----4----|
|--------9-11-9--12/13-12/13--13\11-9-11---10/11----------------7---6-----7--|
|-10------------------------------------------------------------------7------|
|----12----------------------------------------------------------------------|

                         Verse II 2:11
|-----------------------|---0---------0-0----------0-----------0-0------------|
|---------------------2-|---0-------2-0-0--------2-0---------2-0-0------------|
|-4-----4----4--------0-|---1-----0-2---1------0-2---1-----0-2---1------------|
|---6-----7----6------1-|-0-2-----0-2---2------0-2---2-----0-2---2------------|
|-----7-----------7-5-2-|-0-2-----------2------------2-----------2------------|
|-----------------------|-----0-----------0------------0-----------0----------|

 Chorus II 2:26
|-0-3-0----------------------------------------------------------------------|
|-------3-0------------------------------------------------------------------|
|-----------2-0---------------------2----------------------------------------|
|---------------2-------2-5p4-2---------------2-4-2-----2--------------------|
|---------------0-0-3h4---------3h4---0-0-3h4-------3h4-----------2-5p4-2----|
|---------------------------------------------------------0-0-3h4------------|

|----------------------------------------------------------------------------|
|----------------------------------------------------------------------------|
|-------------------------------------------------2--------------------------|
|-----2-------------------0---------4-6-4---------------2-5p4-2-----2--------|
|---------------2-4-2-------2-2-5h6-------6p4-2-0---3h4---------3h4----------|
|-3h4---0-0-3h4-------3h4----------------------------------------------------|

                                 Solo II 2:42
|-----------------------------2-|------15-----15------15-----15------15-------|
|-----------------------------0-|-15b~----(17)----(17~)--15b----(17)----(17)--|
|-----------------------------2-|---------------------------------------------|
|---2---------------------0---1-|---------------------------------------------|
|---------2-5p4-2-----2-----1-2-|---------------------------------------------|
|-0---3h4---------3h4---3-------|---------------------------------------------|

|-15-----15------15------15------------------15------------------------------|
|----15r----(17)----(17)-----15b~--15b~--15b----15r--15-15brp12----12h15p12--|
|---------------------------------------------------------------14-----------|
|----------------------------------------------------------------------------|
|----------------------------------------------------------------------------|
|----------------------------------------------------------------------------|

|----------------------------------------------------------------------------|
|----12h15p12--12h15p12--12h15p12----12h15p12--12--12p11p10----10------------|
|-14------------------------------14------------------------12----9----------|
|----------------------------------------------------------------------------|
|----------------------------------------------------------------------------|
|----------------------------------------------------------------------------|

|----------------------------------------------------------------------------|
|----10br------------10/12-12--12----12-------------12----14--12-------------|
|-12------12--12---9-11/13-13--13-14-12h13-13-13----12h13-14--13h14-15b-12---|
|------------------------------14----------14-14-----------------------------|
|---------------------------------------------14-----------------------------|
|----------------------------------------------------------------------------|

|--------------------5/9\----------------------------------------------------|
|-14b-14r---14b-12~-------0----2-0---------------------------------------5---|
|-14b-14r---14b-12~-------0h1------1--------------2--------------------6---6-|
|-------------------------0h2--------2----------1--------------2-4/6-4-------|
|---------------------------------------0-1-2-2-----2------2-4---------------|
|-----------------------------------------------------3h4--------------------|

|------------------------9--7--6---------------------------------------------|
|-5-3-0------------0---9---------9-8-7-6-5-----------------------------------|
|-------4-2-4--------9---------------------7-6-5-4---------------------------|
|-------------5h6----------------------------------7-6--4--------------------|
|----------------------------------------------------------6-5-4-5-6-7-9-10--|
|----------------------------------------------------------------------------|

|---------------------------------12p9-----12p9-----12p9-----12p9-----9\-----|
|----------------------10-------10-------10-------10-------10-------10-------|
|--------------9-10-11----11--11-------11-------11-------11-------11---------|
|----7-9-10-11---------------------------------------------------------------|
|-11-------------------------------------------------------------------------|
|----------------------------------------------------------------------------|

|----7p4--7p4--7p4--7p4-----9-8-7--------7-----6---5-------5-----4-----3-0---|
|---5----5----5----5--------9-8-7--------------------------------------------|
|--6----6----6----6------/8---7-6\--/8-8---8-7---7-6---3/6---6-5---5-4-------|
|----------------------------------------------------------------------------|
|----------------------------------------------------------------------------|
|----------------------------------------------------------------------------|

                                    Verse III 3:30
|-----0----0-----0-----0-----------|---------------------------------0-0---0--|
|---0----------------------0-----0-|------0---0---0----0---0---0---0-2-0---0--|
|-0-1---/4---4-3---3-2---2-1-0---2-|--0---1-x-1---1-x--1---1-x-1---0-2-0---1--|
|-0-2----------------------2-0---1-|--0-2-2-x-2---2-x--2---2-x-2---0-2---2----|
|---2----------------------2---2---|----2---x---2---x----2---x---2-------2----|
|---0----------------------0-------|----0-------0--------0-------0-------0----|

|----------------------------------------------------------------------------|
|-0---0---0---0---0---0---0------------------------------------0---0----0----|
|-1---1-x-1---1-x-1---1-x-0----4---4---4---4---4---4---4---0---1-x-1----1-x--|
|-2---2-x-2---2-x-2---2-x-0----5-x-5---5-x-5---5-x-5---5-x-0---2-x-2----2-x--|
|---2---x---2---x---2---x----4-4-x-4-4-4-x-4-4-4-x-4-4-4-x-0-2---x----2---x--|
|---0-------0-------0--------5---x---5---x---5---x---5---x---0--------0------|

|-------------------7------7--------5---5-5----------------------------------|
|-0---0---0----0----7---7--7--------5---5-5-----3-----2-----1-------0-2-3----|
|-1---1-x-1----0-/8---x-8--8--------6-x-6-6--/4---4-3---3-2---2-0h1---1-1----|
|-2---2-x-2----0------x---------------x---7---------------------------2-2----|
|---2---x---2---------x---------------x--------------------------------------|
|---0-------0----/7--------7--7-6\5-------5----------------------------------|
Добавлено: 01.01.2016
Другие материалы по этой песне:
  • Аккорды и текст

Страница создана 05.09.2015
http://primanota.ru/stray-cats/be-bop-a-lula-2-chords.htm
Привет, Гость.
Предлагаем пройти революционный курс по гитаре.
Подарок от PrimaNota.Ru, забирай!