PrimaNota.ru - самый крупный в мире бесплатный архив песенных текстов, аккордов, табулатур и нот


Stray Bullets - 70 - таба, видео

Регистрация Запомнить меня
Войти через:  Facebook Google Twitter Vk Yandex Mail.ru

Stray Bullets - 70 - таба, видео

Печатать
Просмотров: 100
Уроки эстрадного вокала в Санкт-Петербурге
Stray Bullets - 70
sfc

INTRO
E---------|---------|---------|---------|
B---------|---------|---------|---------|
G---------|-9~------|---------|---------|
D-9~------|-9~------|-9~------|-7~------| X2
A-9~------|-7~------|-9~------|-7~------|
E-7~------|---------|-7~------|-5~------|

VERSE
E-7-7-7-7-|-7-7-7-7-|-7-7-7-7-|-5-5-5-5-|
B-7-7-7-7-|-8-8-8-8-|-7-7-7-7-|-5-5-5-5-|
G-8-8-8-8-|-9-9-9-9-|-8-8-8-8-|-6-6-6-6-|
D-9-9-9-9-|-9-9-9-9-|-9-9-9-9-|-7-7-7-7-| X4
A-9-9-9-9-|-7-7-7-7-|-9-9-9-9-|-7-7-7-7-|
E---------|---------|---------|---------|

CHORUS
E---------|---------|---------|---------|
B---------|---------|---------|---------|
G-7-7-7-7-|---------|---------|---------|
D-7-7-7-7-|-7-7-7-7-|-9-9-9-9-|-5-5-5-5-| X2
A-5-5-5-5-|-7-7-7-7-|-9-9-9-9-|-5-5-5-5-|
E---------|-5-5-5-5-|-7-7-7-7-|-3-3-3-3-|

SOLO
E---------|---------|---------|---------|
B---------|---------|---------|---------|
G-9-9-9-9-|---------|---------|---------|
D-9-9-9-9-|-9-9-9-9-|-9-9-9-9-|-7-7-7-7-| X4
A-7-7-7-7-|-9-9-9-9-|-9-9-9-9-|-7-7-7-7-|
E---------|-7-7-7-7-|-7-7-7-7-|-5-5-5-5-|

END
E---------|---------|---------|---------|
B---------|---------|---------|---------|
G-7-7-7-7-|---------|---------|---------|
D-7-7-7-7-|-7-7-7-7-|-9-9-9-9-|-5---7---| X2
A-5-5-5-5-|-7-7-7-7-|-9-9-9-9-|-5---7---|
E---------|-5-5-5-5-|-7-7-7-7-|-3---5---|

E----|
B----|
G-7~-|
D-7~-|
A-5~-|
E----|


INTRO
VERSE
CHORUS
VERSE
CHORUS
SOLO
CHORUS
VERSE
CHORUS X4
END
Добавлено: 08.06.2012
Другие материалы по этой песне:
  • Аккорды и текст

Страница создана 08.06.2012
http://primanota.ru/stray-bullets/70-chords.htm
Привет, Гость.
Предлагаем пройти революционный курс по гитаре.
Подарок от PrimaNota.Ru, забирай!