PrimaNota.ru - самый крупный в мире бесплатный архив песенных текстов, аккордов, табулатур и нот


Strawbs - Round & Round - таба, видео

Регистрация Запомнить меня
Войти через:  Facebook Google Twitter Vk Yandex Mail.ru

Strawbs - Round & Round - таба, видео

Печатать
Просмотров: 123
Round and Round -- David Cousins             Recorded by The Strawbs
===============

Intro and ending

|-------------------------------------|
|-------------------------------------|
|-------------------------------------| Repeat
|--7-------------6-7-9-----6-7-9-6--7-|
|-7---9----7--7---------7----------7--|
|--------10---------------------------|

|--5-------------4-5-7-----4-5-7-4--5---5-------------4-5-7-----4-5-7-4-----|
|-5---7----5--5---------5----------5---5---7----5--5---------5----------5-3-|
|--------7------------------------------------7-----------------------------|
|---------------------------------------------------------------------------|
|---------------------------------------------------------------------------|
|---------------------------------------------------------------------------|

  A        E        D      A
I drew the blade across my wrist
           E        D
To see how it would feel
A        E      D
Looked into the future
A                 E     D
There was nothing to reveal
    D                E
For we were just the product
       D             E
Of the ever spinning wheel...
D         E        A
Round and round we go...

Come and see me
When the screw has turned another turn
It's not that I'm confused
I have an awful lot to learn
But I will be the one
To make you work for what you earn
Round and round we go...

After all
It's just the revolution I despise
The dawn of revelations
And the flower power prize
I pity those poor children
With no sunshine in their eyes
Round and round we go...
Добавлено: 09.07.2012
Другие материалы по этой песне:
  • Аккорды и текст

Страница создана 09.07.2012
http://primanota.ru/strawbs/round-and-round-chords.htm
Привет, Гость.
Предлагаем пройти революционный курс по гитаре.
Подарок от PrimaNota.Ru, забирай!