PrimaNota.ru - самый крупный в мире бесплатный архив песенных текстов, аккордов, табулатур и нот


Strawbs - Lady Fuschia - таба, видео

Регистрация Запомнить меня
Войти через:  Facebook Google Twitter Vk Yandex Mail.ru

Strawbs - Lady Fuschia - таба, видео

Печатать
Просмотров: 89
---------------------------------------------------------------------------------------------------------------
                                          Artist - Strawbs
                                         ******************
                                         Song - Lady Fuchsia
                                        *********************
                                 Album - Bursting at the Seams (1973)   
                                **************************************
                                         Tabbed By - Ayreon77
                                        **********************
---------------------------------------------------------------------------------------------------------------
Tuning = Standard


INTRO
******                                             rb          rb
e|---------------------|--b-rb----|-20-17-|    e|-19--------|-19--------|----------|--------------|
B|---------------------|-15-15-13-|-------|    B|-----20~~~-|-----18~~~-|-rb-------|-rb-----------|
G|-------9-------12~~~-|----------|-------|    G|-----------|-----------|-15-12~~~-|-15-----------|
D|-10-12---12-10-------|----------|-------|    D|-----------|-----------|----------|----15--14~~~-|
A|---------------------|----------|-------|    A|-----------|-----------|----------|--------------|
E|---------------------|----------|-------|X2  E|-----------|-----------|----------|--------------|


02:00
e|---------------------|--b-rb----|-20-17-|    e|----------|--------------|
B|---------------------|-15-15-13-|-------|    B|-rb-------|-rb-----------|
G|-------9-------12~~~-|----------|-------|    G|-15-12~~~-|-15-----------|
D|-10-12---12-10-------|----------|-------|    D|----------|----15--14~~~-|
A|---------------------|----------|-------|    A|----------|--------------|
E|---------------------|----------|-------|X2  A|----------|--------------|


OUTRO
******
03:33
e|---------------------|--b-rb----|-20-17-|    e|-----------------|
B|---------------------|-15-15-13-|-------|    B|-rb--------------|
G|-------9-------12~~~-|----------|-------|    G|-15-12~~~--10~~~-|
D|-10-12---12-10-------|----------|-------|    D|-----------------|
A|---------------------|----------|-------|    A|-----------------|
E|---------------------|----------|-------|X2  A|-----------------|



ENJOY.........
Добавлено: 11.12.2015
Другие материалы по этой песне:
  • Аккорды и текст

Страница создана 11.12.2015
http://primanota.ru/strawbs/lady-fuschia-chords.htm
Привет, Гость.
Предлагаем пройти революционный курс по гитаре.
Подарок от PrimaNota.Ru, забирай!