PrimaNota.ru - самый крупный в мире бесплатный архив песенных текстов, аккордов, табулатур и нот


Strawberry Switchblade - James Orr Street - таба, видео

Регистрация Запомнить меня
Войти через:  Facebook Google Twitter Vk Yandex Mail.ru

Strawberry Switchblade - James Orr Street - таба, видео

Печатать
Просмотров: 61
STRAWBERRY SWITCHBLADE - JAMES ORR STREET

e|-------5-------------------------------------------------|
b|-----6---6-----5-----5-6-----------5-------------5-------|
G|---7-------7-----7-------7-----6-----6---6---6-----6---6-|
D|-7-----------7-----7-------7-6---6-----6-------------6---| x2
A|-------------------------------------------7---7---------|
E|---------------------------------------------------------|

e|-------0-----0-------0---0-|
b|-----6----6--------5-------|
G|---7-------------6-----6---|
D|-7-------------6-----------| x4
A|---------------------------|
E|---------------------------|

Repeat above two parts

e|-------------------------------------------------------------|
b|-5------5-------6------6-------5------5-------5------5-------|
G|---6------6---6---7------7---7---7------7---7---9------9---9-|
D|-----6------6-------7------7-------7------7-------9------9---| x2
A|-------------------------------------------------------------|
E|-------------------------------------------------------------|

e|-------0-----0-------0---0-|
b|-----6----6--------5-------|
G|---7-------------6-----6---|
D|-7-------------6-----------| x4
A|---------------------------|
E|---------------------------|

I don't want to go...

e|---------------|
b|-5-----5-----5-|
G|---7-----7-----|
D|-----7-----7---|
A|---------------|
E|---------------|

Repeat til end

e|---------------------------------|
b|-6-----6-----6---5-----5-----5---|
G|---7-----7-----7---6-----6-----6-|
D|-----7-----7---------6-----6-----|
A|---------------------------------|
E|---------------------------------|
Добавлено: 25.12.2015
Другие материалы по этой песне:
  • Аккорды и текст

Страница создана 25.12.2015
http://primanota.ru/strawberry-switchblade/james-orr-street-chords.htm
Привет, Гость.
Предлагаем пройти революционный курс по гитаре.
Подарок от PrimaNota.Ru, забирай!