PrimaNota.ru - самый крупный в мире бесплатный архив песенных текстов, аккордов, табулатур и нот


Strawberry Girls - Spanish Bay - таба, видео

Регистрация Запомнить меня
Войти через:  Facebook Google Twitter Vk Yandex Mail.ru

Strawberry Girls - Spanish Bay - таба, видео

Печатать
Просмотров: 48
Уроки эстрадного вокала в Санкт-Петербурге
-------------------------------------------------------------------------------
                             SPANISH BAY - Strawberry Girls
-------------------------------------------------------------------------------
Tabbed by: spezy93
Tuning: Standard

This is my first tab ever. It's probably full of mistakes but it was just for fun. If you wanna help me 
make this perfect that would be cool. :P Also I'm bad at naming the sections.


INTRO 0:04
For each pair of chords, let the first one ring out.    
e|--------7/12p0-------------------------------------------------------------|
B|--8--8----------8/12p0-0--10-12-----5--5--xx--5--5--xxx--7-----------------|
G|--9--9--------------------11-12-----4--4--xx--4--4--xxx--------------------|
D|--9--9------------------------------5--5--xx--5--5--xxx--7-----------------|
A|--7--7------------------------------3--3--xx--0--0--xxx--5-----------------|
E|---------------------------------------------------------------------------|

e|--------7/12p0-------------------------------------------------------------|
B|--8--8----------8/12p0-0---8--9-----5--5--xx--5--5-------------------------|
G|--9--9--------------------10-11-----4--4--xx--4--4-------------------------|
D|--9--9------------------------------5--5--xx--5--5-------------------------|
A|--7--7------------------------------3--3--xx--0--0-------------------------|
E|---------------------------------------------------------------------------|


CHORUS 0:12
Same for these ones.
e|--------7/12p0------------------------------------------------------------|
B|--8--8----------8/12p0-0--10-12-----5--5--xxxx--5--5--xxx--7---------------|
G|--9--9--------------------11-12-----4--4--xxxx--4--4--xxx------------------|
D|--9--9------------------------------5--5--xxxx--5--5--xxx--7---------------|
A|--7--7------------------------------3--3--xxxx--0--0--xxx--5---------------|
E|---------------------------------------------------------------------------|

e|--------7/12p0-------------------------------------------------------------|
B|--8--8----------8/12p0-0---8--9-----5--5--xxxx--5--5--xxx--10--------------|
G|--9--9--------------------10-11-----4--4--xxxx--4--4--xxx------------------|
D|--9--9------------------------------5--5--xxxx--5--5--xxx--10--------------|
A|--7--7------------------------------3--3--xxxx--0--0--xxx---8--------------|
E|---------------------------------------------------------------------------|

e|--------7/12p0-------------------------------------------------------------|
B|--8--8----------8/12p0-0--10-12-----5--5--xxxx--5--5--xxx--7---------------|
G|--9--9--------------------11-12-----4--4--xxxx--4--4--xxx------------------|
D|--9--9------------------------------5--5--xxxx--5--5--xxx--7---------------|
A|--7--7------------------------------3--3--xxxx--0--0--xxx--5---------------|
E|---------------------------------------------------------------------------|

e|--------7/12p0-------------------------------------------------------------|
B|--8--8----------8/12p0-0---8--9-----5--5--xxxx--5--5-----------------------|
G|--9--9--------------------10-11-----4--4--xxxx--4--4-----------------------|
D|--9--9------------------------------5--5--xxxx--5--5-----------------------|
A|--7--7------------------------------3--3--xxxx--0--0-----------------------|
E|---------------------------------------------------------------------------|


0:29
e|---------------|---------|-------------------------------------------------|
B|--9--9--9--9---|--9------|-------------------------------------------------|
G|--8--8--8--8---|--8--x12-|-------------------------------------------------|
D|--9--9--9--9---|--9------|-------------------------------------------------|
A|--7--7--7--7---|--7------|-------------------------------------------------|
E|---------------|---------|-------------------------------------------------|


0:34
Let these notes ring out.
e|---------------------------------------------------12\---------------------|
B|----12------10-----8-------------------------12-----------10-----8---------|
G|------12------9-----9--------------------------12-----------9-----9--------|
D|--14------11-----10------------------------14-----------11-----10----------|
A|---------------------------------------------------------------------------|
E|---------------------------------------------------------------------------|

e|----12---------15-19-------------------------------12\---------------------|
B|------12/15--19----------10-----8------------12-----------10---------------|
G|---------------------------9-----9-------------12-----------9--------------|
D|--14-------------------11-----10-----------14-----------11-----10\---------|
A|---------------------------------------------------------------------------|
E|---------------------------------------------------------------------------|


0:53
e|-10p0-10-7p0-7-10p0-10-7p0-7-10p0-7p0--7p0-7------------------------------------|
B|--------------------------------------------8p0-8-10p0-10------------8-10-------|
G|---------------------------------------------------------9p0-9---7-9------------|
D|--------------------------------------------------------------------------------|
A|--------------------------------------------------------------------------------|
E|--------------------------------------------------------------------------------|

                                                      { This part is played really fast. }
e|-10p0-10-7p0-7-10p0-10-7p0-7-10p0-7p0--7p0-7-------------------------------------------|
B|--------------------------------------------8p0-8-10----8h10-10------8h10-10------8h10-|
G|-----------------------------------------------------7h9-------h9-7h9-------h9-7h9-----|
D|---------------------------------------------------------------------------------------|
A|---------------------------------------------------------------------------------------|
E|---------------------------------------------------------------------------------------|

e|-10p0-10-7p0-7-10p0-10-7p0-7-10p0-7p0--7p0-7------------------------------------|
B|--------------------------------------------8p0-8-10p0-10------------8-10-------|
G|---------------------------------------------------------9p0-9---7-9------------|
D|--------------------------------------------------------------------------------|
A|--------------------------------------------------------------------------------|
E|--------------------------------------------------------------------------------|

e|-10p0-10-7p0-7-10p0-10-7p0-7-10p0-7p0-------------------------------------------|
B|---------------------------------------7h8-7------------------------------------|
G|---------------------------------------------9-7--------------------------------|
D|-------------------------------------------------9------------------------------|
A|--------------------------------------------------------------------------------|
E|--------------------------------------------------------------------------------|

1:13
e|--10--10/12--------10--10/12----------------------------------10p0--------------|
B|-----------12--10-8---------12-12b--10-8-10-10/12----10--10/12------------------|
G|-------------------------------------------------9------------------------------|
D|--------------------------------------------------------------------------------|
A|--------------------------------------------------------------------------------|
E|--------------------------------------------------------------------------------|

e|--10--10/12--------10--10/12----------------------------------10----------------|
B|-----------12--10-8---------12-12b--10-8-10-10/12----10--10/12------------------|
G|-------------------------------------------------9------------------------------|
D|--------------------------------------------------------------------------------|
A|--------------------------------------------------------------------------------|
E|--------------------------------------------------------------------------------|


TAPPING PART 1:33
Not sure if this is the correct way to tab this.
    T    T    T  T    T    T    T  T    T    T      T    T    T  T    T    T    T  T    T    T  
e|-12p3h12p3-12-12---12p3h12p3-12-12---12p3h12p3---12p2h12p2-12-12---12p2h12p2-12-12---12p2h12p2-|   \
B|-12p5h12p5-12-12---12p5h12p5-12-12---12p5h12p5---12p3h12p3-12-12---12p3h12p3-12-12---12p3h12p3-|   |
G|-----------------------------------------------------------------------------------------------|   |
D|-----------------------------------------------------------------------------------------------|   |
A|-----------------------------------------------------------------------------------------------|   |
E|-----------------------------------------------------------------------------------------------|   |
                                                                                                     | x4
    T    T    T  T    T    T    T  T    T    T      T    T    T  T    T    T    T       T            |
e|-12p3h12p3-12-12---12p3h12p3-12-12---12p3h12p5---12p2h12p2-12-12---12p2h12p2-12------12p2\-----|   |
B|-12p5h12p5-12-12---12p5h12p5-12-12---12p5h12p5---12p3h12p3-12-12---12p3h12p3-12------12p3\-----|   |
G|---------------------------------------------^-------------------------------------------^-----|   |
D|---------------------------------------------|  These are the only different parts here. |-----|   |
A|-----------------------------------------------------------------------------------------------|   |
E|-----------------------------------------------------------------------------------------------|   /



e|-12p0-12-------12p0-12-------12p0-------12p0-12-------12p0-12-------12p0--------|
B|--------12p0-12-------12p0-12----12p0----------12p0-12-------12p0-12----12p0----|
G|--------------------------------------------------------------------------------|
D|--------------------------------------------------------------------------------|
A|--------------------------------------------------------------------------------|
E|--------------------------------------------------------------------------------|

e|-12p0-12-------12p0-12-------12p0-------14p0-14-------15p0-11p0-11p0-11p0-11----|
B|--------12p0-12-------12p0-12----12p0----------12p0-12--------------------------|
G|--------------------------------------------------------------------------------|
D|--------------------------------------------------------------------------------|
A|--------------------------------------------------------------------------------|
E|--------------------------------------------------------------------------------|

CHORUS 2:13
e|--------7/12p0-------------------------------------------------------------|
B|--8--8----------8/12p0-0---10-12----5--5--xxxx--5--5--xxx--7---------------|
G|--9--9---------------------11-12----4--4--xxxx--4--4--xxx------------------|
D|--9--9------------------------------5--5--xxxx--5--5--xxx--7---------------|
A|--7--7------------------------------3--3--xxxx--0--0--xxx--5---------------|
E|---------------------------------------------------------------------------|

e|--------7/12p0-------------------------------------------------------------|
B|--8--8----------8/12p0-0---8-10-----5--5--xxxx--5--5--xxx--10--------------|
G|--9--9---------------------9-11-----4--4--xxxx--4--4--xxx------------------|
D|--9--9------------------------------5--5--xxxx--5--5--xxx--10--------------|
A|--7--7------------------------------3--3--xxxx--0--0--xxx---8--------------|
E|---------------------------------------------------------------------------|

e|-----------------19--19-24-19----------------------------------------------|
B|--8--8-----17--19-------------------5--5--xxxx--5--5--xxx--7---------------|
G|--9--9---16-------------------------4--4--xxxx--4--4--xxx------------------|
D|--9--9------------------------------5--5--xxxx--5--5--xxx--7---------------|
A|--7--7------------------------------3--3--xxxx--0--0--xxx--5---------------|
E|---------------------------------------------------------------------------|

e|---------------------------------------------------------------------------|
B|--8--8----------12--10/15--12\---------------------------------------------|
G|--9--9---------------------------------------------------------------------|
D|--9--9---------------------------------------------------------------------|
A|--7--7---------------------------------------------------------------------|
E|---------------------------------------------------------------------------|


2:31
e|---------------------------------------------------------------------------|
B|---------------------------------------------------------------------------|
G|-------5-4-----------------------------------------------------------------|
D|------------------7-5-------2-0-2--0-5p2p0--5p2p0--5p2p0-------------------|
A|--3---3-3------------------------------------------------------------------|
E|------------5--555-5----0--0-----------------------------------------------|

e|---------------------------------------------------------------------------|
B|---------------------------------------------------------------------------|
G|-------5-4-----------------------------------------------------------------|
D|------------------7-5------------------------------------------------------|
A|--3---3-3-----------------------2-5----------------------------------------|
E|------------5--555-5----0-2-3-5--------------------------------------------|

e|---------------------------------------------------------------------------|
B|---------------------------------------------------------------------------|
G|-------5-4-----------------------------------------------------------------|
D|-----------------7-5-------2-0-2--0-5p2p0--5p2p0--5p2p0--------------------|
A|--33--3-3------------------------------------------------------------------|
E|------------5-5---5----0--0------------------------------------------------|

e|----------------------|    |------------------------------------|      |----------|
B|----------------------|    |------------------------------------|      |----------|
G|-------5-4------------|    |------------------------------------|      |----------|
D|------------------7-5-|    |------2-0-2--0-5p2p0--5p2p0--5p2p0--| x3   |----2-0-2-|
A|--3---3-3-------------|    |------------------------------------|      |----------|
E|------------5--555-5--|    |--0--0------------------------------|      |-0-0------|


OUTRO 2:55
e|--15h17h19p17p15----------15h17-15-----------------------------------------|
B|---------------------15h17--------h17-15----13h15h17p15-13-12--------------|
G|---------------------------------------------------------------------------|
D|---------------------------------------------------------------------------|
A|---------------------------------------------------------------------------|
E|---------------------------------------------------------------------------|

e|-----15-17h19p17p15-------14h15p14p12-----10h12p10-------------------------|
B|--17----------------17----------------------------12-----------------------|
G|---------------------------------------------------------------------------|
D|---------------------------------------------------------------------------|
A|---------------------------------------------------------------------------|
E|---------------------------------------------------------------------------|

e|---------------------------------------------------------------------------|
B|---------------------------------------------------------------------------|
G|-------------------------????????????????????------------------------------|
D|---------------------------------------------------------------------------|
A|---------------------------------------------------------------------------|
E|---------------------------------------------------------------------------|


e|--15 14---------19 19h20p19-17----|  |--16---------------------------------|
B|--------17--12/-------------------|  |----17-------------------------------|
G|----------------------------------|  |------16---16-17-19---17-16-14-------|  x2
D|----------------------------------|  |-------------------------------------|
A|----------------------------------|  |-------------------------------------|
E|----------------------------------|  |-------------------------------------|

e|---------|
B|--15/17--|
G|---------|
D|---------|
A|---------|
E|---------|


************************************

| /   slide up
| \   slide down
| h   hammer-on
| p   pull-off
| ~   vibrato
| +   harmonic
| x   Mute note
| b   Bend
| pb  Pre-bend
| br  Bend release
| pbr Pre-bend release
| brb Bend release bend

************************************
Добавлено: 06.05.2016
Другие материалы по этой песне:
  • Аккорды и текст

Страница создана 06.05.2016
http://primanota.ru/strawberry-girls/spanish-bay-chords.htm
Привет, Гость.
Предлагаем пройти революционный курс по гитаре.
Подарок от PrimaNota.Ru, забирай!