PrimaNota.ru - самый крупный в мире бесплатный архив песенных текстов, аккордов, табулатур и нот


Стравинский Игорь - An Easy Piece - таба, видео

Регистрация Запомнить меня
Войти через:  Facebook Google Twitter Vk Yandex Mail.ru

Стравинский Игорь - An Easy Piece - таба, видео

Печатать
Просмотров: 127
"An Easy Piece Using Five Notes"
					Igor Stravinsky (1882-1971)

  (Slow Waltz)		
 [1]							      v(ring)
E--2--2------0------|------------------|-----0--------------------|
B---------0------4--|--4---------0--0--|--2------4--p2--0--2--0---|
G-------------------|--4---------------|--------------------------|
D--4------0---------|-------4----0-----|---------4---------0------|
A----------------4--|------------------|--2-----------------------|
E-------------------|------------------|--------------------------|


 [4]
E-------2-----------|-----0-----------------|--2--2----------------|
B-------0----0---0--|--2-----4-p2--0--2--0--|---------0---4-p2--0--|
G-------------------|-----------------------|----------------------|
D------------4------|--0--------------4-----|---------0------------|
A--2----------------|--------2--------------|----------------------|
E-------------------|-----------------------|--0----------0--------|


 [7]					  v(let ring)
E------------2--|-----0----------------------|---------5--5--5--5--|
B--2--4---------|--4------4--p2--0--2--0--4--|---------------------|
G---------------|----------------------------|-----0------0-----0--|
D--4---------0--|---------4------------0-----|---------------------|
A---------------|----------------------------|--2--4---2--4--2--4--|
E-------0-------|--0-------------------------|---------------------|


 [10]		       v(let ring)
E--3---5--p2---0-------0-----|-----------5--5--5--5--|
B------------------3---------|------3----------------|
G------0-----------0------0--|------0-------0-----0--|
D----------------------------|-----------------------|
A--2---4-------2---4---2--4--|--2---4----2--4--2--4--|
E----------------------------|-----------------------|
					 (softly)
	
 [12]					    v(let ring)	
E--3---5---2---0-------0-----|--------------2--|-----2-----0------|
B------------------3---------|--3--------------|---------------4--|
G------0-----------0------0--|------0----------|---------4--------|
D----------------------------|-----------------|--4------0-----4--|
A--2---4-------2---4---2--4--|--2---4---2------|------------------|
E----------------------------|-----------------|------------------|
					    (softly)

 [15]					v(let ring)
E-----------------|-----0------------------|------2---------|
B--4--------------|--2------4-p2--0--2--0--|------0---------|
G--4-------4---4--|------------------------|----------4--4--|
D------4---0------|---------4--------0-----|----------4-----|
A-----------------|--2---------------------|--2-------------|
E-----------------|------------------------|----------------|
		    (slower towards end >(bars 16-18))

 [18]			  v(let ring)
E------0---------------------|
B--2-------4--p2------2------|
G-----------------4-------4--|
D--0------------------4------|
A----------2-----------------|
E----------------------------|
		      ^(let ring)
     
Добавлено: 26.10.2013
Вам также может быть интересно:
Другие материалы по этой песне:
  • Аккорды и текст

Страница создана 08.09.2013
http://primanota.ru/stravinskii-igor/an-easy-piece-chords.htm
Привет, Гость.
Предлагаем пройти революционный курс по гитаре.
Подарок от PrimaNota.Ru, забирай!