PrimaNota.ru - самый крупный в мире бесплатный архив песенных текстов, аккордов, табулатур и нот


Stratovarius - Dreamspace - текст песни, таба, бас-таба, видео

Регистрация Запомнить меня
Войти через:  Facebook Google Twitter Vk Yandex Mail.ru

Stratovarius - Dreamspace - текст песни, таба, бас-таба, видео

Печатать
Просмотров: 147
Авторы музыки: Timo Tolkki
Авторы текста: Timo Tolkki
Stratovarius: Dreamspace

 Guitar 1/2 step down!!!
-------------------------
/\/ = Vibrato
/   = Slide Up
ha  = Harmonic
1/2 = bend half step
-------------------------
intro:
partI  Pm...................................................................
Eb|-------------------------------------------------------------------------|
Bb|----------------12-----14-----------------12-----------------------------|
Gb|----13----11-------------------13---11----------13------13----13----11---|
Db|-11----11----11-----11------11----11---11----11------11----11----11----11|
Ab|-------------------------------------------------------------------------|
Eb|-------------------------------------------------------------------------|

Pm............Chords                       repeat part I
Eb|-------------------------------------------------------------------------|
Bb|-12----14-|---------------------------|-----------------|----------------|
Gb|----------|---6/\/\-4-/\/\-2-/\/\-----|-----------------|----------------|
Db|----11----|---6/\/\-4-/\/\-2-/\/\-4/\-|-----------------|---6----6---6---|
Ab|----------|---4/\/\-2-/\/\-0-/\/\-4/\-|-----------------|-4---4----4-----|
Eb|----------------------------------2/\------------------------------------|

clean
Eb|--------0-------------0---0----------0--------------0---0---------0------|
Bb|------0--0----------0--0-----------0---0----------0---0----0-----0--0----|
Gb|-----6------------6--------------6--------------6--------------6---------|
Db|----6-----------6--------------6--------------6---------------6----------|
Ab|--4--------------------------4-------------------------------4-----------|
Eb|--------------7----------------------------7-----------------------------|

dist. RiffA[................................................................
Eb|-------------------------------------------------------------------------|
Bb|-------------------------------------------------------------------------|
Gb|-------------------------------------------------------------------------|
Db|----6---------4---------7---------6-4-6---------4--------7---------------|
Ab|------4-4-4-4---4-4-4-4---4-4-4-4-------4-4-4-4---4-4-4-4--4--4-4-4------|
Eb|-------------------------------------------------------------------------|

................................] Repeat Riff A  - Pause
Eb|-------------------------------------------------------------------------|
Bb|----------------------------|--------------|-----------------------------|
Gb|-2-----22------2-2--2-2-22--|--------------|-----------------------------|
Db|-2-----22------2-2--2-2-22--|--------------|-----------------------------|
Ab|-0-0-0-00--0-0----0-0-0-00--|--------------|-----------------------------|
Eb|-------------------------------------------------------------------------|

interlude
Eb|-------------------------------------------------------------------------|
Bb|---------1-------1------1------1-----|-------3-----3-----3-----3---------|
Gb|-------4-------4------4------4---4---|-----6-----6------6-----6--6-------|
Db|----2--------2------2------2-------2-|---4-----4------4-----4------4-----|
Ab|-------------------------------------|-----------------------------------|
Eb|-------------------------------------------------------------------------|

Vocal.
Eb|-------------------------------------------------------------------------|
Bb|--------8--------8-------8--------8--------6------6-----6-----6----------|
Gb|-----11-------11-------11------11--------9------9-----9-----9------------|
Db|---9-------9---------9------9---------7-------7-----7-----7--------------|
Ab|-------------------------------------------------------------------------|
Eb|-------------------------------------------------------------------------|

Riff B[............................]Vocal
Eb|-------------------------------------------------------------------------|
Bb|--------------------------------|--------------|-------------------------|
Gb|-2-2----------------------------|--------------|-------------------------|
Db|-2-2-2-2-2-2-2-2-2-2-2-2--------|--------------|-7-5-7-8-7-5-7--5-7-5-7--|
Ab|-0-0-0-0-0-0-0-0-0-0-0-0---/-8--|---5--8-7-----|-------------------------|
Eb|---------------------------/-6------3--6-5-------5-3-5-6-5-3-5--3-5-3-5--|
                  Repeat Riff B
Eb|-------------------------------------------------------------------------|
Bb|--------------|--------------|---10----10--12--13--12--10--8--6---6-8/10-|
Gb|--------------|--------------|-------9--------------------------5--------|
Db|----12-11--14-|--------------|-------------------------------------------|
Ab|--------------|--------------|-------------------------------------------|
Eb|----10--9--12------------------------------------------------------------|


Eb|-------------------------------------------------------------------------|
Bb|-8--6--5--3---3--5/6\5-3------------------|-2/\/\/-----------------------|
Gb|------------2-------------4----4-6/7\6-4--|-2/\/\/-----------------------|
Db|----------------------------4-------------|-2/\/\/-----------------------|
Ab|------------------------------------------|-0/\/\/-----------------------|
Eb|-------------------------------------------------------------------------|

End...



by SErgio Daher - BRAZIL
MAIL:
dtheater@hotmail.com
sergiod@sti.com.br

my page: "Guitar Hero Page"
http://www.geocities/SunsetStrip/Stage/2522/
Добавлено: 19.05.2012
Другие материалы по этой песне:

Страница создана 07.03.2012
http://primanota.ru/stratovarius/dreamspace-chords.htm
Привет, Гость.
Предлагаем пройти революционный курс по гитаре.
Подарок от PrimaNota.Ru, забирай!