PrimaNota.ru - самый крупный в мире бесплатный архив песенных текстов, аккордов, табулатур и нот


Stratovarius - Atlantis - таба, видео

Регистрация Запомнить меня
Войти через:  Facebook Google Twitter Vk Yandex Mail.ru

Stratovarius - Atlantis - таба, видео

Печатать
Просмотров: 164
Авторы музыки: Timo Tolkki

                               Music :Atlantis
                              Album :DREAMSPACE

by SErgio Daher - BRAZIL
MAIL:
dtheater@hotmail.com
sergiod@sti.com.br

my page: "Guitar Hero Page"
http://www.geocities/SunsetStrip/Stage/2522/index.htm


 Guitar 1/2 step down!!!
-------------------------
/\/ = Vibrato
/   = Slide Up
ha  = Harmonic
1/2 = bend half step
-------------------------

INTRO: wITH delaY AT 250 Ms (CLEAN)

Eb|-0--0--0-0-0--0--0-0--0-0-2-2---2--2-2--3-3-3-3-3-3---10-10--3--7--------|
Bb|----0--0-----------0------0-0-0-0--0-0--0-0---0---0----0--0--0--0--5-----|
Gb|-------------------------------------------------------------------0-----|
Db|-------------------------------------------------------------------------|
Ab|-------------------------------------------------------------------------|
Eb|-------------------------------------------------------------------------|

Eb|-0--0--0-0-0--0--0-0--0-0-2-2---2--2-2--3-3-3-3-3-3---10-10--3--7--------|
Bb|----0--0-----------0------0-0-0-0--0-0--0-0---0---0----0--0--0--0--5-----|
Gb|-------------------------------------------------------------------0-----|
Db|-------------------------------------------------------------------------|
Ab|-------------------------------------------------------------------------|
Eb|-------------------------------------------------------------------------|



Eb|--0-0---0---2--2-3-3-3---10--10--9-9---3-3---7--7--0-0--2-2--3-3-3-------|
Bb|--0---0--0--0--0-0-0-0----0---0--0-0---0-0-0-0--0--0-0--0-0--0-0-0-------|
Gb|-------------------------------------------------------------------------|
Db|-------------------------------------------------------------------------|
Ab|-------------------------------------------------------------------------|
Eb|-------------------------------------------------------------------------|

Eb|----7--7---0--0-0--------------------------------------------------------|
Bb|---0---0-----00-0--00--0-0-2-2-2-2-3-3-3-3--5-5-5-5--3-3-3-3-2-2-2-2-----|
Gb|--------------------------------------------------------------0-0--0-----|
Db|-------------------------------------------------------------------------|
Ab|-------------------------------------------------------------------------|
Eb|-------------------------------------------------------------------------|

Eb|-------------------------------------------------------------------------|
Bb|-0-0-0-0-2-2-2-2-2-3-3-3-3-3--5-5-5-5-5--3-3-3-3-3-00-0-0-0-0------------|
Gb|--------------------------------------------------------------22-2-2-----|
Db|-------------------------------------------------------------------------|
Ab|-------------------------------------------------------------------------|
Eb|-------------------------------------------------------------------------|


Eb|----------------0-0-0-0-0--0-0-2-2-2-2-2--2------------------------------|
Bb|-------------|-----------0-0---------------3--3-3-3-3-3-5-5-5-5-3-3-3-3--|
Gb|--4-4-4-4-4--|-------------------------------------------------------0---|
Db|-------------|-----------------------------------------------------------|
Ab|-------------|-----------------------------------------------------------|
Eb|-------------------------------------------------------------------------|


Eb|-----------------------------------0-0-0-0-0-0-0-0-2-2-2-2-2-2-22-3-3-33-|
Bb|----00--0-0-0------------------------------------------------------------|
Gb|--------------2-2-2-2-2--4-4-4-4-4---------------------------------------|
Db|-------------------------------------------------------------------------|
Ab|-------------------------------------------------------------------------|
Eb|-------------------------------------------------------------------------|


Eb|--3-3-3-5-5-5-5----3-3-3-3-----------------------------------------------|
Bb|------0---0---0--------0--5--5-5-5----4--4-4-4-4--5-5-5-5-5-5-|----------|
Gb|--------------------------------------------------------------|----------|
Db|--------------------------------------------------------------|----------|
Ab|--------------------------------------------------------------|----------|
Eb|-------------------------------------------------------------------------|


Eb|----5-5---5---5-----05-5-5-3-3-3---------3-3-3-3---7--7-7--7--7-7-7------|
Bb|---0----0---0---0-0--------------0-0-0-0---------|--0-0-0--0--0----------|
Gb|-------------------------------------------------|-----------------------|
Db|-------------------------------------------------|-----------------------|
Ab|-------------------------------------------------|-----------------------|
Eb|-------------------------------------------------------------------------|

Eb|---5--5---5------10--10-10-10-10--9--9-9-0-9-----------------------------|
Bb|-----0--0---0------0--0--0---------0-0-0---0-----------------------------|
Gb|-------------------------------------------------------------------------|
Db|-------------------------------------------------------------------------|
Ab|-------------------------------------------------------------------------|
Eb|-------------------------------------------------------------------------|

/--------------------------------------- 2 X ----------------------------\
Eb|-0--0--0-0-0--0--0-0--0-0-2-2---2--2-2--3-3-3-3-3-3---10-10--3--7--------|
Bb|----0--0-----------0------0-0-0-0--0-0--0-0---0---0----0--0--0--0--5-----|
Gb|-------------------------------------------------------------------0-----|
Db|-------------------------------------------------------------------------|
Ab|-------------------------------------------------------------------------|
Eb|-------------------------------------------------------------------------|

End.
Добавлено: 02.03.2012
Другие материалы по этой песне:

Страница создана 02.03.2012
http://primanota.ru/stratovarius/atlantis-chords.htm
Привет, Гость.
Предлагаем пройти революционный курс по гитаре.
Подарок от PrimaNota.Ru, забирай!