PrimaNota.ru - самый крупный в мире бесплатный архив песенных текстов, аккордов, табулатур и нот


Strata - Waiting - текст песни, таба, видео

Регистрация Запомнить меня
Войти через:  Facebook Google Twitter Vk Yandex Mail.ru

Strata - Waiting - текст песни, таба, видео

Печатать
Просмотров: 169
Waiting Tab

Song: Waiting
Artist: Strata (www.stratadirect.com)
Album: Strata (Track 10)
Tabbed By: C. Hart (ironfistguy@gmail.com)
Tuning: Drop Db (Db,Ab,Db,Gb,Bb,Eb)

Well, this is my first tab, shouldn't be any errors, but feel free to contact me at my
address if there are any.

N.B. Solo is not included yet; it's very difficult to tab due to the effects used. Will
it in in a later version.


Intro:

Gtr. 1 (Lead) [Riff 1]
Eb-|----------------|----------------|3--333-3--333-3-|5--555-5--555-5-|
Bb-|3--333-3--333-3-|6--666-6--666-6-|----------------|----------------|
Gb-|----------------|----------------|----------------|----------------|
Db-|----------------|----------------|----------------|----------------|
Ab-|----------------|----------------|----------------|----------------|
Db-|----------------|----------------|----------------|----------------|

Gtr. 2 (Rhythm)
Eb-|----------------|----------------|----------------|----------------|
Bb-|----------------|----------------|----------------|----------------|
Gb-|----------------|----------------|----------------|----------------|
Db-|----------------|----------------|0-----2-2-----3-|3-----5-5--3--2-|
Ab-|----------------|----------------|0-----2-2-----3-|3-----5-5--3--2-|
Db-|----------------|----------------|0-----2-2-----3-|3-----5-5--3--2-|


Chorus 1:

Gtr. 1 (Lead) [Riff 2]
Eb-|----------------|----------------|----------------|----------------|
Bb-|6--666-5--5-5-5-|6--666-5--5-5-5-|6--666-5--5-5-5-|6--666-5--5-5-5-|
Gb-|----------------|----------------|----------------|----------------|
Db-|----------------|----------------|----------------|----------------|
Ab-|----------------|----------------|----------------|----------------|
Db-|----------------|----------------|----------------|----------------|

Eb-|----------------|-------8--6--5--|----------------|----------------|
Bb-|6--666-5--5-5-5-|6--666----------|6--666-5--5-5-5-|6--666-5--5-5-5-|
Gb-|----------------|----------------|----------------|----------------|
Db-|----------------|----------------|----------------|----------------|
Ab-|----------------|----------------|----------------|----------------|
Db-|----------------|----------------|----------------|----------------|

Gtr. 2 (Rhythm) [Rhy. Fig. 1]
Eb-|----------------|----------------|----------------|----------------|
Bb-|----------------|----------------|----------------|----------------|
Gb-|----------------|----------------|----------------|----------------|
Db-|0---------------|0---------------|8---------------|8---------------|
Ab-|0---------------|0---------------|8---------------|8---------------|
Db-|0---------------|0---------------|8---------------|8---------------|

Eb-|----------------|----------------|----------------|----------------|
Bb-|----------------|----------------|----------------|----------------|
Gb-|----------------|----------------|----------------|----------------|
Db-|0---------------|0---------------|8---------------|8---------------|
Ab-|0---------------|0---------------|8---------------|8---------------|
Db-|0---------------|0---------------|8---------------|8---------------|


Verse 1:

Gtrs. 1 + 2 [Rhy. Fig. 2]
Eb-|----------------|----------------|----------------|----------------|
Bb-|----------------|----------------|----------------|----------------|
Gb-|----------------|----------------|----------------|----------------|
Db-|0---0-----------|0---0-----------|0---0-----------|0---0-----------|
Ab-|0---0-----------|0---0-----------|0---0-----------|0---0-----------|
Db-|0---0-----------|0---0-----------|0---0-----------|0---0-----------|

Then Gtr. 1 - Riff 1


Chorus 2:

Gtr. 1 - Riff 2
Gtr. 2 - Rhy. Fig. 1


Post-Chorus:

Gtr. 1 - Riff 1


Verse 2:

Gtrs. 1 + 2 - Rhy. Fig. 2

Then Gtr. 1 - Riff 1


Chorus 3:

Gtr. 1 - Riff 2, repeated
Gtr. 2 - Rhy. Fig. 1, repeated


Bridge:

Gtr. 1: (Lead)
Eb-|----------------|----------------|-----------------|-------------------|
Bb-|----------------|----------------|-----------------|-------------------|
Gb-|----------------|----------------|7-----9-9-----10-|10----12-12--10--9-|
Db-|3---------------|2---------------|x-----x-x-----x--|x-----x--x---x---x-|
Ab-|3---------------|2---------------|5-----7-7-----8--|8-----10-10--8---7-|
Db-|3---------------|2---------------|-----------------|-------------------|

Eb-|----------------|----------------|-----------------|-------------------|
Bb-|----------------|----------------|-----------------|-------------------|
Gb-|7---------------|12--------------|7----------------|-------------------|
Db-|x---------------|x---------------|x----------------|-----*pickscrape*--|
Ab-|5---------------|10--------------|5----------------|-------------------|
Db-|----------------|----------------|-----------------|-------------------|

Gtr. 2: (Rhythm)
Eb-|----------------|----------------|-----------------|-------------------|
Bb-|----------------|----------------|-----------------|-------------------|
Gb-|----------------|----------------|7-----9-9-----10-|10----12-12--10--9-|
Db-|3---------------|2---------------|x-----x-x-----x--|x-----x--x---x---x-|
Ab-|3---------------|2---------------|5-----7-7-----8--|8-----10-10--8---7-|
Db-|3---------------|2---------------|-----------------|-------------------|

Eb-|----------------|----------------|-----------------|-------------------|
Bb-|----------------|----------------|-----------------|-------------------|
Gb-|7---------------|5---------------|-----------------|-------------------|
Db-|x---------------|x---------------|0----------------|-----*pickscrape*--|
Ab-|5---------------|3---------------|0----------------|-------------------|
Db-|----------------|----------------|0----------------|-------------------|


Solo:

Ok, this is nigh on impossible to tab due to massive distortion of the sound by various
- wah, cry sounds, and stuff. However, you can achieve a similar effect using a digital
pedal e.g. a Zoom 505 Mk.II by just adding as many strange effects as you can for each 
and then get one guitar to play Riff 1 twice with tremolo picking, and the other
to play it an octave higher with tremolo picking. It will never sound the same - but 
sound cool. :)


Chorus 4:

Gtr. 1 - Riff 2 played twice
Gtr. 2 - Rhy. Fig. 1 played twice


Outro:

Gtr. 1 (Lead):
Eb-|----------------|----------------|----------------|----------------|
Bb-|6--666-5--5-5-5-|6--666-5--5-5-5-|6--666-5--5-5-5-|6------8-8------|
Gb-|----------------|----------------|----------------|----------------|
Db-|----------------|----------------|----------------|----------------|
Ab-|----------------|----------------|----------------|----------------|
Db-|----------------|----------------|----------------|----------------|

Eb-|----------------|----------------|----------------|----------------|
Bb-|6--666-5--5-5-5-|6--666-5--5-5-5-|5-5-5-5-5-5-5-5-|5-5-5-5---------|
Gb-|----------------|----------------|----------------|----------------|
Db-|----------------|----------------|----------------|--------0---0---|
Ab-|----------------|----------------|----------------|--------0---0---|
Db-|----------------|----------------|----------------|--------0---0---|
                      Played Staccato:^_______________________^

Gtr. 2 (Rhythm):
Eb-|----------------|----------------|----------------|----------------|
Bb-|----------------|----------------|----------------|----------------|
Gb-|----------------|----------------|----------------|----------------|
Db-|8---------------|8---------------|0---------------|0---------------|
Ab-|8---------------|8---------------|0---------------|0---------------|
Db-|8---------------|8---------------|0---------------|0---------------|

Eb-|----------------|----------------|----------------|----------------|
Bb-|----------------|----------------|----------------|----------------|
Gb-|----------------|----------------|----------------|----------------|
Db-|8---------------|8---------------|2-2-2-2-2-2-2-2-|2-2-2-2-0---0---|
Ab-|8---------------|8---------------|2-2-2-2-2-2-2-2-|2-2-2-2-0---0---|
Db-|8---------------|8---------------|2-2-2-2-2-2-2-2-|2-2-2-2-0---0---|

The last rhythm section may not be completely accurate, its hard to tell - but I'm quite
it's right.
Добавлено: 19.07.2012
Другие материалы по этой песне:
  • Аккорды и текст

Страница создана 19.07.2012
http://primanota.ru/strata/waiting-chords.htm
Привет, Гость.
Предлагаем пройти революционный курс по гитаре.
Подарок от PrimaNota.Ru, забирай!