PrimaNota.ru - самый крупный в мире бесплатный архив песенных текстов, аккордов, табулатур и нот


Strata - Coma Therapy - текст песни, таба, видео

Регистрация Запомнить меня
Войти через:  Facebook Google Twitter Vk Yandex Mail.ru

Strata - Coma Therapy - текст песни, таба, видео

Печатать
Просмотров: 188
      Strata- Coma Therapy
      from the album " strata presents the end of the world

     dropped d

      intro/verse

      I felt you come to life on my fingertips.....
       //---------------------2/44--------------2-------------------2--------//
       //---------555-444-222---------------------4-------------------4------//
      //--444-333 ----------------4p3-3-4-3-3-4-------4p3-3-4-3-3-4----------//
      //---------------------------------------------------------------------//
      //---------------------------------------------------------------------//
      //---------------------------------------------------------------------//

       // -----------------------------------------//
       //--5---5--4----4--4--5---5---4---4---------//
      //----4---4---4---4------4---4---4-----------//
     // -------------------------------------------//
     // -------------------------------------------//


    chorus 1
    i've got nothing left to lose ....

   // ---2-----------2---------------0-----------------------//
   //--- 2-------2---2-------9--12---0--5/7/5/7/5-5-4--------//
   // ---4-----4---4-2-4--4----------1--4/6/4/6/4-----4------//
   // ---4---4-------4--2------------2------------------//---//   x2
   // ---2-2---------4---------------2-----------------------//
   // ---2-----------2---------------0-----------------------//

    end of the chorus
    ...than this coma (coma)  therapy

     //---0----3---------//
    // ---0----3---------//
    // ---1----0---------//
    // ---2----0---------//
    // ---2----2---------//
    // ---0----3---------//


    verse 2 same as the 1

    you whispered in my ear like a boomb going off...

    chorus 2 is the same that the 1 but the end changes cause
    it goes to the end of the song

     .....so let me drift away in my coma (coma) therapy

    //------------0--3---x---//
    //-----9--12--0--3---1---//
    //------------1--0---3---//
   // ------------2--0---3---//
   // ------------2--2---1---//
   // ------------0--3---1---//


   listen to the song to make  to it all clear and above all enjoy playing guitar guys
   "cold vultures" from france
Добавлено: 04.06.2012
Другие материалы по этой песне:
  • Аккорды и текст

Страница создана 04.06.2012
http://primanota.ru/strata/coma-therapy-chords.htm
Привет, Гость.
Предлагаем пройти революционный курс по гитаре.
Подарок от PrimaNota.Ru, забирай!