PrimaNota.ru - самый крупный в мире бесплатный архив песенных текстов, аккордов, табулатур и нот


Strata - Cocaine - текст песни, бас-таба, видео

Регистрация Запомнить меня
Войти через:  Facebook Google Twitter Vk Yandex Mail.ru

Strata - Cocaine - текст песни, бас-таба, видео

Печатать
Просмотров: 174
Новый альбом группы 'Черный Кузнец' по культовому сериалу 'Сверхъестественное'!
Artist: Strata
Song: Cocaine (We're All Going To Hell)
Tabbed By : pblx19
e-mail: pblx19@yahoo.com

Tuning: Standard

x6
G|-----------------------------------------------------------------------------|
D|------6/8p6----------------2h4p2---------------------------------------------|
A|----6-------66-44-22-1---2-------22-----2-4----------------------------------|
E|--4--------------------0------------00-----2---------------------------------|


x1
G|-----------------------------------------------------------------------------|
D|-----------------------------------------------------------------------------|
A|--------------------------------------------------------------2--2--2--------|
E|---4444444444444444-0000000000000004444444446444444-0000000000-00-00-0-------|


x2
G|-----------------------------------------------------------------------------|
D|------6/8p6----------------2h4p2---------------------------------------------|
A|----6-------66-44-22-1---2-------22-----2-4----------------------------------|
E|--4--------------------0------------00-----2---------------------------------|


x1
G|-----------------------------------------------------------------------------|
D|-------6/8p6----------------2h4p2--------------------------------------------|
A|----6--------66-44-22-1-----------22----2-4----------------------------------|
E|--4---------------------0------------00----2---------------------------------|


x2
G|-----------------------------------------------------------------------------|
D|------6/8p6----------------2h4p2---------------------------------------------|
A|----6-------66-44-22-1---2-------22-----2-4----------------------------------|
E|--4--------------------0------------00-----2---------------------------------|


x1
G|-----------------------------------------------------------------------------|
D|-----------------------------------------------------------------------------|
A|---------------------------------------------------------------2--2--2-------|
E|---4444444444444444-00000000000000004444444446444444-0000000000-00-00-0------|


x2
G|-----------------------------------------------------------------------------|
D|-----------------------------------------------------------------------------|
A|-------------------(11's)----------------------------------------------------|
E|---44466677799910101111-0000000000000000-------------------------------------|


x1
G|---------------------------------------------------------------------------|
D|---------------------------------------------------------------------------|
A|---------------------------------------------------------------------------|
E|-6666666666666666444444444444444422222222222222200000000/1212121212121212-


x1
G|-----------------------------------------------------------------------------|
D|-----------------------------------------------------------------------------|
A|------------(11's)-----------4888666222-------222000-------------------------|
E|66666666999111111101044444444----------22222222-----121212121212121210h12----|

G|-----------------------------------------------------------------------------|
D|-----------------------------------------------------------------------------|
A|-----------------------------------------------------------------------------|
E|1212121214\------------------------------------------------------------------|


x2
G|-----------------------------------------------------------------------------|
D|------6/8p6----------------2h4p2---------------------------------------------|
A|----6-------66-44-22-1---2-------22-----2-4----------------------------------|
E|--4--------------------0------------00-----2---------------------------------|


x1
G|-----------------------------------------------------------------------------|
D|-------6/8p6----------------2h4p2--------------------------------------------|
A|----6--------66-44-22-1-----------22----2-4----------------------------------|
E|--4---------------------0------------00----2---------------------------------|


x2
G|-----------------------------------------------------------------------------|
D|------6/8p6----------------2h4p2---------------------------------------------|
A|----6-------66-44-22-1---2-------22-----2-4----------------------------------|
E|--4--------------------0------------00-----2---------------------------------|


x1
G|-----------------------------------------------------------------------------|
D|-----------------------------------------------------------------------------|
A|---------------------------------------------------------------2--2--2-------|
E|---4444444444444444-00000000000000004444444446444444-0000000000-00-00-0------|


x2
G|-----------------------------------------------------------------------------|
D|-----------------------------------------------------------------------------|
A|-------------------(11's)----------------------------------------------------|
E|---444666777999101011110002224445557788--------------------------------------|


x2
G|-----------------------------------------------------------------------------|
D|------6/8p6----------------2h4p2---------------------------------------------|
A|----6-------66-44-22-1---2-------22-----2-4----------------------------------|
E|--4--------------------0------------00-----2---------------------------------|


x1
G|-----------------------------------------------------------------------------|
D|-----------------------------------------------------------------------------|
A|-----------------------------------------------------------------------------|
E|--4~-----4~-----4~-----------------------------------------------------------|

| /  slide up
| \  slide down
| h  hammer-on
| p  pull-off
| ~  vibrato
| +  harmonic
| x  Mute note
===============================================================================
Добавлено: 06.05.2012
Другие материалы по этой песне:
  • Аккорды и текст

Страница создана 06.05.2012
http://primanota.ru/strata/cocaine-chords.htm
Привет, Гость.
Предлагаем пройти революционный курс по гитаре.
Подарок от PrimaNota.Ru, забирай!