PrimaNota.ru - самый крупный в мире бесплатный архив песенных текстов, аккордов, табулатур и нот


Stranglers - All Day And All Of The Night - текст песни, таба, видео

Регистрация Запомнить меня
Войти через:  Facebook Google Twitter Vk Yandex Mail.ru

Stranglers - All Day And All Of The Night - текст песни, таба, видео

Печатать
Просмотров: 247
Уроки эстрадного вокала в Санкт-Петербурге
Авторы музыки: Ray Davies
Авторы текста: Ray Davies
Hi, this is my first ever tab (honestly) :) 

Band: The Stranglers
Song: All day and all of the night


Tab:
[GUITAR 1 IS BASICALLY THE SAME ALL THROUGH THE SONG]

INTRO + VERSE:

|-----------------------------------|
|-----------------------------------| \
|-5-7----7-5----5->-10-10-10--7-----|  >  Listen to the song for timing.
|-5-7----7-5----5->-10-10-10--7-----| /
|-3-5----5-3----3->--8--8--8--5-----|
|-----------------------------------|


CHORUS:


|-----------------------------------|
|-----------------------------------| \
|-5-7----7-5----5->-10-10-10--7-----|  >  "The only time I feel alright..."
|-5-7----7-5----5->-10-10-10--7-----| /
|-3-5----5-3----3->--8--8--8--5-----|
|-----------------------------------|



Guitar 2 to follow...

Any changes? Conroy-EFC-1978@hotmail.co.uk

Cheers
Добавлено: 17.06.2012
Другие материалы по этой песне:
  • Аккорды и текст

Страница создана 23.04.2012
http://primanota.ru/stranglers/all-day-and-all-of-the-night-chords.htm
Привет, Гость.
Предлагаем пройти революционный курс по гитаре.
Подарок от PrimaNota.Ru, забирай!