PrimaNota.ru - самый крупный в мире бесплатный архив песенных текстов, аккордов, табулатур и нот


Strangers - Kolme Kitaraa - бас-таба, видео

Регистрация Запомнить меня
Войти через:  Facebook Google Twitter Vk Yandex Mail.ru

Strangers - Kolme Kitaraa - бас-таба, видео

Печатать
Просмотров: 86
Уроки эстрадного вокала в Санкт-Петербурге
strangers-kolme_kitaraa.btab

Basstab by Jan Bjorklund, Finland; 
jani_bjorklund@yahoo.se 
You are welcome to request for basstabs!
Bienvenidos a pedirme transcripciones para el bajo!
Fingering and positions as suggested by TablEdit. 

TablEdited by Jan Bjorklund for Timo
Tuning : E A D G 	Time Signature: 4/4

 |       |       |       |        |       |       |       |        
|--------------------------------|--------------------------------|
|----------------5-------6-------|7-------5-----------------------|
|5-------8-----------------------|----------------8-------5-------|
|--------------------------------|--------------------------------|

 |       |       |       |        |       |       |       |        
|--------5-------7-------8-------|9-------7-------5---------------|
|7-------------------------------|------------------------7-------|
|--------------------------------|--------------------------------|
|--------------------------------|--------------------------------|

 |       |       |       |        |       |       |       |        
|7-------------------------------|--------------------------------|
|--------9-------9-------8-------|9-------6-----------------------|
|--------------------------------|----------------7-------5-------|
|--------------------------------|--------------------------------|

 |       |       |       |        |       |       |       |        
|----------------7-------8-------|9-------7-----------------------|
|7-------7-----------------------|--------------------------------|
|--------------------------------|----------------0-------0-------|
|--------------------------------|--------------------------------|

 |       |       |       |        |       |       |       |        
|--------------------------------|--------------------------------|
|----------------5-------6-------|7-------5-----------------------|
|5-------8-----------------------|----------------8-------5-------|
|--------------------------------|--------------------------------|

 |       |       |       |        |       |       |       |        
|--------5-------7-------8-------|9-------7-------5---------------|
|7-------------------------------|------------------------7-------|
|--------------------------------|--------------------------------|
|--------------------------------|--------------------------------|

 |       |       |       |        |       |       |       |        
|7-------------------------------|--------------------------------|
|--------9-------9-------8-------|9-------6-----------------------|
|--------------------------------|----------------7-------5-------|
|--------------------------------|--------------------------------|

 |       |       |       |        |       |       |       |        
|--------5-------7-------8-------|9-------7-------5---------------|
|7-------------------------------|------------------------7-------|
|--------------------------------|--------------------------------|
|--------------------------------|--------------------------------|

 |       |       |       |        |       |       |       |        
|--------------------------------|5-------7-------5---------------|
|--------5-------6-------7-------|------------------------7-------|
|7-------------------------------|--------------------------------|
|--------------------------------|--------------------------------|

 |       |       |       |        |       |       |       |        
|7-------------------------------|--------------------------------|
|--------9-------9-------8-------|7-------6-----------------------|
|--------------------------------|----------------7-------6-------|
|--------------------------------|--------------------------------|

 |       |       |       |        |       |       |       |        
|--------------------------------|--------------------------------|
|--------------------------------|--------6-------9-------6-------|
|5---------------5-------6-------|7-------------------------------|
|--------7-----------------------|--------------------------------|

 |       |       |       |        |       |       |       |        
|--------5-------6-------7-------|8-------9-------7-------5-------|
|7-------------------------------|--------------------------------|
|--------------------------------|--------------------------------|
|--------------------------------|--------------------------------|

 |       |       |       |        |       |       |       |        
|--------------------------------|--------5-------7-------5-------|
|7---------------5-------6-------|7-------------------------------|
|--------7-----------------------|--------------------------------|
|--------------------------------|--------------------------------|

 |       |       |       |        |       |       |       |        
|7-------6-------4-------4-------|--------------------------------|
|--------------------------------|7-------6-----------------------|
|--------------------------------|----------------7-------6-------|
|--------------------------------|--------------------------------|

 |       |       |       |        |       |       |       |        
|--------------------------------|--------------------------------|
|--------------------------------|--------6-------9-------6-------|
|5---------------5-------6-------|7-------------------------------|
|--------7-----------------------|--------------------------------|

 |       |       |       |        |       |       |       |        
|--------5-------7-------8-------|9-------7-------5---------------|
|7-------------------------------|------------------------7-------|
|--------------------------------|--------------------------------|
|--------------------------------|--------------------------------|

 |       |       |       |        |       |       |       |        
|--------------------------------|--------5-----------------------|
|--------------------------------|7---------------7-------5-------|
|5-------3---------------3-------|--------------------------------|
|----------------5---------------|--------------------------------|

 |       |       |       |        |       |       |       |        
|--------------------------------|--------------------------------|
|--------6-----------------------|7-------5---------------5-------|
|7---------------7-------5-------|----------------7---------------|
|--------------------------------|--------------------------------|

 |       |       |       |        |       |       |       |        
|--------------------------------|--------5-----------------------|
|--------3-----------------------|7---------------7-------5-------|
|5---------------5---------------|--------------------------------|
|------------------------5-------|--------------------------------|

 |       |       |       |        |       |       |       |        
|--------------------------------|--------------------------------|
|--------6-----------------------|--------------------------------|
|7---------------7-------5-------|--------3-------5-------3-------|
|--------------------------------|5-------------------------------|

 |       |       |       |        |       |       |       |        
|--------------------------------|--------5-----------------------|
|--------------------------------|7---------------7-------5-------|
|5-------3---------------3-------|--------------------------------|
|----------------5---------------|--------------------------------|

 |       |       |       |        |       |       |       |        
|--------------------------------|--------5-----------------------|
|--------6-----------------------|7---------------7-------5-------|
|7---------------7-------5-------|--------------------------------|
|--------------------------------|--------------------------------|

 |       |       |       |        |       |       |       |        
|--------------------------------|--------------------------------|
|--------------------------------|7-------5---------------5-------|
|5-------3---------------3-------|----------------7---------------|
|----------------5---------------|--------------------------------|

 |       |       |       |        |       |       |       |        
|--------------------------------|--------------------------------|
|--------------------------------|--------------------------------|
|7-------5---------------5-------|7-------------------------------|
|----------------7---------------|--------------------------------|

 |       |       |       |        |       |       |       |        
|--------------------------------|--------10------12------13------|
|--------------------------------|12------------------------------|
|--------------------------------|--------------------------------|
|--------------------------------|--------------------------------|

 |       |       |       |        |       |       |       |        
|14------12------10--------------|--------------------------------|
|------------------------12------|--------10------12------13------|
|--------------------------------|12------------------------------|
|--------------------------------|--------------------------------|

 |       |       |       |        |       |       |       |        
|--------------------------------|--------13------16------15------|
|14------12------10--------------|14------------------------------|
|------------------------12------|--------------------------------|
|--------------------------------|--------------------------------|

 |       |       |       |        |       |       |       |        
|14------13----------------------|--------------------------------|
|----------------14------12------|--------------------------------|
|--------------------------------|--------------------------------|
|--------------------------------|--------------------------------|

 |       |       |       |        |       |       |       |        
|--------------------------------|----------------12------13------|
|--------------------------------|12------15----------------------|
|--------------------------------|--------------------------------|
|--------------------------------|--------------------------------|

 |       |       |       |        |       |       |       |        
|14------12----------------------|--------------------------------|
|----------------15------12------|--------14------13------12------|
|--------------------------------|12------------------------------|
|--------------------------------|--------------------------------|

 |       |       |       |        |       |       |       |        
|--------------------------------|--------13------16------15------|
|10------------------------------|14------------------------------|
|--------12------10--------------|--------------------------------|
|------------------------12------|--------------------------------|

 |       |       |       |        |       |       |       |        
|14------13----------------------|--------------------------------|
|----------------14------12------|--------------------------------|
|--------------------------------|--------------------------------|
|--------------------------------|--------------------------------|

 |       |       |       |        |       |       |       |        
|--------------------------------|--------------------------------|
|--------------------------------|----------------5-------6-------|
|--------------------------------|5-------8-----------------------|
|--------------------------------|--------------------------------|

 |       |       |       |        |       |       |       |        
|--------------------------------|--------5-------7-------8-------|
|7-------5-----------------------|7-------------------------------|
|----------------8-------5-------|--------------------------------|
|--------------------------------|--------------------------------|

 |       |       |       |        |       |       |       |        
|9-------7-------5---------------|--------------------------------|
|------------------------7-------|--------9-------8-------7-------|
|--------------------------------|7-------------------------------|
|--------------------------------|--------------------------------|

 |       |       |       |        |       |       |       |        
|--------------------------------|--------5-------7-------8-------|
|6-------------------------------|7-------------------------------|
|--------7-------5---------------|--------------------------------|
|------------------------7-------|--------------------------------|

 |       |       |       |        |       |       |       |        
|9-------7-------5---------------|--------------------------------|
|------------------------7-------|----------------5-------6-------|
|--------------------------------|5-------8-----------------------|
|--------------------------------|--------------------------------|

 |       |       |       |        |       |       |       |        
|--------------------------------|--------5-------7-------8-------|
|7-------5-----------------------|7-------------------------------|
|----------------8-------5-------|--------------------------------|
|--------------------------------|--------------------------------|

 |       |       |       |        |       |       |       |        
|9-------7-------5---------------|7-------------------------------|
|------------------------7-------|--------9-------9-------8-------|
|--------------------------------|--------------------------------|
|--------------------------------|--------------------------------|

 |       |       |       |        |       |       |       |        
|--------------------------------|--------5-------7-------8-------|
|9-------6-----------------------|7-------------------------------|
|----------------7-------5-------|--------------------------------|
|--------------------------------|--------------------------------|

 |       |       |       |        |       |       |       |        
|9-------------------------------|--------10------12------13------|
|--------12------10--------------|12------------------------------|
|------------------------12------|--------------------------------|
|--------------------------------|--------------------------------|

 |       |       |       |        |       |       |       |        
|14------12------10--------------|--------------------------------|
|------------------------12------|--------10------12------13------|
|--------------------------------|12------------------------------|
|--------------------------------|--------------------------------|

 |       |       |       |        |       |       |       |        
|--------------------------------|--------13------16------15------|
|14------12------10--------------|14------------------------------|
|------------------------12------|--------------------------------|
|--------------------------------|--------------------------------|

 |       |       |       |        |       |       |       |        
|14------13----------------------|--------------------------------|
|----------------14------12------|--------10------12------13------|
|--------------------------------|12------------------------------|
|--------------------------------|--------------------------------|

 |       |       |       |        |       |       |       |        
|--------------------------------|--------10------12------13------|
|14------12------10--------------|12------------------------------|
|------------------------12------|--------------------------------|
|--------------------------------|--------------------------------|

 |       |       |       |        |       |       |       |        
|14------12------10--------------|--------------------------------|
|------------------------12------|--------10------12------13------|
|--------------------------------|12------------------------------|
|--------------------------------|--------------------------------|

 |       |       |       |        |       |       |       |        
|--------------------------------|--------13------16------15------|
|14------12------10--------------|14------------------------------|
|------------------------12------|--------------------------------|
|--------------------------------|--------------------------------|

 |       |       |       |        |       |       |       |        
|14------13----------------------|--------------------------------|
|----------------14--------------|--------------------------------|
|------------------------14------|--------------------------------|
|--------------------------------|0-------------------------------|


Created with TablEdit http://www.tabledit.com/

     
Добавлено: 23.08.2013
Вам также может быть интересно:
Другие материалы по этой песне:
  • Аккорды и текст

Страница создана 23.08.2013
http://primanota.ru/strangers/kolme-kitaraa-chords.htm
Привет, Гость.
Предлагаем пройти революционный курс по гитаре.
Подарок от PrimaNota.Ru, забирай!