PrimaNota.ru - самый крупный в мире бесплатный архив песенных текстов, аккордов, табулатур и нот


Strangeness In Proportion - I Hate My Friends - таба, видео

Регистрация Запомнить меня
Войти через:  Facebook Google Twitter Vk Yandex Mail.ru

Strangeness In Proportion - I Hate My Friends - таба, видео

Печатать
Просмотров: 106
-------------------------------------------------------------------------------
                             I Hate My Friends - Strangeness In Proportion
-------------------------------------------------------------------------------


Tuning:Standard

e|---------------------------------------------------------------------------|
B|---------------------------------------------------------------------------|
G|---------------------------------------------------------------------------|
D|--7------------------------------------------------------------------------| Play 3 times
A|--5--7--9--5---------------------------------------------------------------|
E|-----5--7--3---------------------------------------------------------------|

e|---------------------------------------------------------------------------|
B|---------------------------------------------------------------------------|
G|---------------------------------------------------------------------------|
D|--7------------------------------------------------------------------------|
A|--5--7--9--5--5--5--5------------------------------------------------------|
E|-----5--7--3--3--3--3------------------------------------------------------|

e|--------------------------------------------------|
B|--------------------------------------------------|
G|--------------------------------------------------|
D|--7--7--7--7--------------------------------------|   play until song ends
A|--5--5--5--5--7--7--7--7--9--9--9--9--5--5--5--5--|
E|--------------5--5--5--5--7--7--7--7--3--3--3--3--|


Lyrics:

I don't know what to do
It's like I don't exist to you
I'm the third wheel walking behind
You only call me when you're high
How can you ignore me
After everything that's happened
I can't remember anything
Besides crying on my floor

I think I hate my friends
They probably hate me too
They'll smoke all my weed
And ignore me nest week

Cut off connection with everyone the other day
My friends are changing colors, I remain gray
You're the people who hurt me the most
Are you my friends on enemies? Everyone's too close

I definitely hate my friends
I know they hate me too
They drink all my beer
I won't be important next year
Добавлено: 11.12.2015
Другие материалы по этой песне:
  • Аккорды и текст

Страница создана 11.12.2015
http://primanota.ru/strangeness-in-proportion/i-hate-my-friends-chords.htm
Привет, Гость.
Предлагаем пройти революционный курс по гитаре.
Подарок от PrimaNota.Ru, забирай!