PrimaNota.ru - самый крупный в мире бесплатный архив песенных текстов, аккордов, табулатур и нот


Strangefolk - So Well - бас-таба, видео

Регистрация Запомнить меня
Войти через:  Facebook Google Twitter Vk Yandex Mail.ru

Strangefolk - So Well - бас-таба, видео

Печатать
Просмотров: 71
Уроки эстрадного вокала в Санкт-Петербурге
Song: G Well	
Artist: Strangefolk
Album: Lore (1997)
Bassist: Eric Glockler

Tabbed by John

Verse
G------------------------------------------------------------------
D-----------------------------3-----------------------3-------4--3-
A-4-4-4h6---------------6-4-6---4-4-4h6---------------------6--6---
E---------4-4-4h6-4-4-6-----------------4-4-4h6-4-4-6---4-6--------

Refrain (at end of verse)
G-----------------------
D-------4--3-4--3-4---3-
A-----6--6----6-----6---
E-4-6-------------------

Chorus Lead-In
G------------
D------------ 
A-----4-4-44-
E-4-6--------
Improvise a little...

Chorus
G-----------------------------------------------
D-----------------------------------------------
A-4-4-----6-4\2---------4-4-------4-4-------4-4-
E-----4-6-------2-2-4/6-----2-4/6-----2-4/6-----

The rhythm in the notes in this song is a little tricky, but if you listen
to the song, you can hear that the bass often plays with the acoustic guitar 
rhythm.
     
Добавлено: 04.12.2013
Вам также может быть интересно:
Другие материалы по этой песне:
  • Аккорды и текст

Страница создана 23.11.2013
http://primanota.ru/strangefolk/so-well-chords.htm
Привет, Гость.
Предлагаем пройти революционный курс по гитаре.
Подарок от PrimaNota.Ru, забирай!