PrimaNota.ru - самый крупный в мире бесплатный архив песенных текстов, аккордов, табулатур и нот


Strange Fruit - Black Moon - таба, видео

Регистрация Запомнить меня
Войти через:  Facebook Google Twitter Vk Yandex Mail.ru

Strange Fruit - Black Moon - таба, видео

Печатать
Просмотров: 74
Tabbed By Rob Kirkby
dionysus1985@hotmail.com
[[[All own work]]]
Any Questions/Problems/Requests, email me

Intro/Main Riff (Distorted Guitar)
e|-----------------------------|-------------------------------------|
B|-----------------------------|-------------------------------------|
G|-----------------------------|-------------------------------------|
D|-----------------------------|-------------------------------------|
A|------------------------10---|---------------------------5h7-------|
E|-0-12-0-0-10-0-0-9-0-0--8----|-0-12-0-0-10-0-0-9-0-0--5h7----7p0---|

Chorus Part1
e|---------------------------------------------------------|
B|---------------------------------------------------------|
G|---------------------------------------------------------|
D|-7-7--7----------7-7--7-------7-7--7------7-7--7---------|
A|-7-7--7----------7-7--7-------7-7--7------7-7--7---------|
E|-5-5--5----------5-5--5-------5-5--5------5-5--5---------|

Chorus Part 2
e|---------------------------------------------------------|
B|---------------------------------------------------------|
G|---------------------------------------------------------|
D|-4-4--4----------4-4--4-------4-4--4------4-4--4---------|
A|-4-4--4----------4-4--4-------4-4--4------4-4--4---------|
E|-2-2--2----------2-2--2-------2-2--2------2-2--2---------|

Interlude                                |(Improvise lead Break)|
e|---------------------------------------------------------------------|
B|---------------------------------------------------------------------|
G|---------------------------------------------------------------------|
D|-7-7-7-7-7-7-7-7-7-9-9-9-9-9-9-9-9-9-9-2-2-2-2-2-2-2-2-2-2-2-2-2-----|
A|-5-5-5-5-5-5-5-5-5-7-7-7-7-7-7-7-7-7-7-0-0-0-0-0-0-0-0-0-0-0-0-0-----|
E|---------------------------------------------------------------------|

Guitar Solo
[[NO IDEA]]
[Improvise]


Order:- Main Riff
	Chorus Part 1
	Main Riff
	Chorus Part 1
	Chorus Part 2
	Main Riff
	Interlude
	Guitar Solo
	[Drum Fill]
	Chorus Part 1
	Chorus Part 2
	Main Riff

     
Добавлено: 23.06.2013
Вам также может быть интересно:
Другие материалы по этой песне:
  • Аккорды и текст

Страница создана 23.06.2013
http://primanota.ru/strange-fruit/black-moon-chords.htm
Привет, Гость.
Предлагаем пройти революционный курс по гитаре.
Подарок от PrimaNota.Ru, забирай!