PrimaNota.ru - самый крупный в мире бесплатный архив песенных текстов, аккордов, табулатур и нот


Strange Boys - Be Brave - таба, видео

Регистрация Запомнить меня
Войти через:  Facebook Google Twitter Vk Yandex Mail.ru

Strange Boys - Be Brave - таба, видео

Печатать
Просмотров: 197
Уроки эстрадного вокала в Санкт-Петербурге
The Strange Boys
Be Brave
By: Michael Campbell

This is my first tab ever so enjoy! Please rate/comment!


E-7--7-x-----7-7-7-7--------------------------|
A----9-x-------9-9-7--------------------------|
D----9-x-------9-9-9--------------------------|   (Play Twice)
G----8-x-------8-8-7--------------------------|
B----7-x-------7-7-9--------9---9---9---------|
e----7-x-------7-7-7----------7---7---7--9^---|
  V  V       V V ^ V (Hold)

E-7--7-x-----7-7-7-7-----------------------------|
A----9-x-------9-9-7-----------------------------|
D----9-x-------9-9-9-----------------------------|   
G----8-x-------8-8-7-----------------------------|
B----7-x-------7-7-9--------9---9---9---9---9-9--|
e----7-x-------7-7-7----------7---7---7---7--7-7-|
  V  V       V V ^ V (Hold)



E-1-|	
A-3-|	
D-3-|	
G-2-|	
B-1-|	
e-1-|	
Listen to get strumming pattern for this chord

E-1-2-3-4-5-1/7--|
A-1-2-3-4-5-1/7--|
D-1-2-3-4-5-1/7--|
G-1-2-3-4-5-1/7--|
B----------------|
e----------------|




E-7-7-x---7-7-x------------------------|
A-9-9-x---9-9-x------------------------|
D-9-9-x---9-9-x------------------------|	(Play Twice)
G-8-8-x---8-8-x------------------------|
B-7-7-x---7-7-x-----9---9---9----------|
e-7-7-x---7-7-x-------7---7---7--9^----|
  V ^	  V ^

E-7-7-x---7-7-x---------------------------|
A-9-9-x---9-9-x---------------------------|
D-9-9-x---9-9-x---------------------------|	
G-8-8-x---8-8-x---------------------------|
B-7-7-x---7-7-x-----9---9---9---9---9-9---|
e-7-7-x---7-7-x-------7---7---7---7--7-7--|
  V ^     V ^ 




E-1-|	
A-3-|	
D-3-|	
G-2-|	
B-1-|	
e-1-|	
Listen to get strumming pattern for this chord

E-1-2-3-4-5-1/7--|
A-1-2-3-4-5-1/7--|
D-1-2-3-4-5-1/7--|
G-1-2-3-4-5-1/7--|
B----------------|
e----------------|
Добавлено: 12.06.2012
Другие материалы по этой песне:
  • Аккорды и текст

Страница создана 12.06.2012
http://primanota.ru/strange-boys/be-brave-chords.htm
Привет, Гость.
Предлагаем пройти революционный курс по гитаре.
Подарок от PrimaNota.Ru, забирай!