PrimaNota.ru - самый крупный в мире бесплатный архив песенных текстов, аккордов, табулатур и нот


Straitjackets - Sing Sing Sing - таба, видео

Регистрация Запомнить меня
Войти через:  Facebook Google Twitter Vk Yandex Mail.ru

Straitjackets - Sing Sing Sing - таба, видео

Печатать
Просмотров: 107
Уроки эстрадного вокала в Санкт-Петербурге
                                 SING SING SING
                        As recorded by Los Straitjackets

Transcribed by Greg McCain

Here's my stab at this tune.  It took a while to figure out and even longer
before I could (arguably) play it.  There's probably other ways to finger
some
of this stuff so if you find a better way, post it!  Honestly, this is the
strangest way to play in Emi I've come across.

||--12----12------|-12----12----|-12----12------|-12----12-----||
||o---------------|-------------|---------------|-------------o||
||--14h15-14------|-12----14----|-14h15-14------|-12-----------||
||----------------|-------------|---------------|-------14-----||
||o---------------|-------------|---------------|-------------o||
||----------------|-------------|---------------|--------------||


||--------------|------------|-----------------|---------------|
||o-12----12----|-12---12----|--12--12-12--12--|-12--12-12-----|
||--12----11----|--9---11----|--12--12-11--11--|--9--11-12-----|
||--------------|------------|-----------------|---------------|
||o-------------|------------|-----------------|---------------|
||--------------|------------|-----------------|---------------|


|-12--12--------|-12--12-------|-7--7--7---7--|-7--7-------||
|-12--12--12----|-12--12-12----|-8--7--8--10--|-8--7------o||
|---------11----|--------11----|--------------|------------||
|---------------|--------------|--------------|------9-----||
|---------------|--------------|--------------|-----------o||
|---------------|--------------|--------------|------------||


|-------------------|--------------|------------------|-------------------|
|-------------------|--------------|------------------|-------------------|
|-------------------|--------------|------------------|-------------------|
|----------------9--|-----9--------|-9-10-12--12--12--|-12-10-9-----------|
|----10--10--12-----|-10-----12----|------------------|----------10--10---|
|-10----------------|--------------|------------------|-------------------|


|-------------------|--------------|------------------|------------------|
|-------------------|--------------|------------------|------------------|
|-------------------|--------------|------------------|------------------|
|----------------9--|-----9--------|-9-10-12--12--12--|-12-10-9------9---|
|----10--10--12-----|-10-----12----|------------------|----------10------|
|-10----------------|--------------|------------------|------------------|


                                                         4x
||--/5---------|-----------|----------------|------------||
||o-------5----|-4----3----|----3h4p3---3h4p|=3---------o||
||-------------|-----------|--5-------5-----|---5--------||
||-------------|-----------|----------------|------7-----||
||o------------|-----------|----------------|-----------o||
||-------------|-----------|----------------|------------||


||------------|--------------|--------|-----------|--------------|-----||
||o-----------|--------------|--------|-----------|--------------|-----||
||------------|--------------|--------|-----------|--------------|-----||
||------------|--------------|---7----|-----------|--------------|-----||
||o-----------|-5-----5--6-7-|--------|-----------|-5-----5--6-7-|-----||
||--5----8----|----8---------|--------|-5----8----|----8---------|--5--||


                            3x
||--0h5p0------|-0----0-----||
||o-------5----|-4----3----o||
||-------------|------------||
||-------------|------------||
||o------------|-----------o||
||-------------|------------||


||--0h5p0------|------------|
||o-------5----|------------|
||-------------|-7--5-------|
||-------------|-------7----|
||o------------|------------|
||-------------|------------|


||--5--------|-5-4-3----------|---------------|---------||
||o--------5-|----------5\----|---4---4---4p3-|--------o||
||-----------|----------------|-5---5---5-----|-5-------||
||-----------|----------------|---------------|---7-----||
||o----------|----------------|---------------|--------o||
||-----------|----------------|---------------|---------||


    Am
                               4x
||--5----------|---------------||
||o-5----------|--------------o||
||--5-------5--|-7b9r=7----5---||
||--7----7-----|---------------||
||o------------|--------------o||
||-------------|---------------||


||--/17-17-17-17-17-17-17-17-|-17-17-17-17-17--16-17-16----|
||o--------------------------|--------------------------17-|
||---------------------------|-----------------------------|
||---------------------------|-----------------------------|
||o--------------------------|-----------------------------|
||---------------------------|-----------------------------|


|-15--14-15-14----|-12-13-12----12---------------|
|--------------15-|----------15----15-13-12------|
|-----------------|-------------------------14---|
|-----------------|------------------------------|
|-----------------|------------------------------|
|-----------------|------------------------------|


||---------------------------------12----|
||o----------13p12----12h13p12-----------|
||--14p13h14-------14----------14--------|
||---------------------------------------|
||o--------------------------------------|
||---------------------------------------|


|-------------------------|---------------||
|----------13p12----12h13p|=12-----------o||
|-14p13h14-------14-------|----14--14-----||
|-------------------------|---------------||
|-------------------------|--------------o||
|-------------------------|---------------||


|-/17-17-17-17-17-17-17-17-|-17-17-17-17-17-17-17-17-|
|--------------------------|-------------------------|
|--------------------------|-------------------------|
|--------------------------|-------------------------|
|--------------------------|-------------------------|
|--------------------------|-------------------------|


|-17-17-17-17-17-17-17-17-|-17-17-17-17-17--20b20.5--|
|-------------------------|--------------------------|
|-------------------------|--------------------------|
|-------------------------|--------------------------|
|-------------------------|--------------------------|
|-------------------------|--------------------------|


                                3x
||--17----16----|-17---16--16---||
||o-17----16----|-17---16--16--o||
||--17----16----|-17---16--16---||
||--------------|---------------||
||o-------------|--------------o||
||--------------|---------------||


|-17----|
|-17----|
|-17----|
|-------|
|-------|
|-------|


Tablature Legend
----------------
 h   - hammer-on
 p   - pull-off
 b   - bend
 pb  - pre-bend
 r   - bend release (if no number after the r, then release immediately)
 /\  - slide into or out of (from/to "nowhere")
 s   - legato slide
 S   - shift slide
 n>  - natural harmonic
[n]  - artificial harmonic
n(n) - tapped harmonic
 ~   - vibrato
 tr  - trill
 T   - tap
 TP  - trem. picking
 PM  - palm muting
\n/  - tremolo bar dip; n = amount to dip
 \n  - tremolo bar down
 n/  - tremolo bar up
/n\  - tremolo bar inverted dip
 =   - hold bend; also acts as connecting device for hammers/pulls
  >  - volume swell (louder/softer)
 x   - on rhythm slash represents muted slash
 o   - on rhythm slash represents single note slash

Misc Legend
-----------
 |  - bar
||  - double bar
||o - repeat start
o|| - repeat end
*|  - double bar (ending)
 :  - bar (freetime)
 $  - Segno
 &  - Coda
Tempo markers -  E/E./Q/Q./H/H.> = BPM(8/16=s8/s16), where s8 = swing 8ths,
s16 = swing 16ths


****************************************************************************
***********
* Generated using Power Tab Editor by Brad Larsen -
http://powertab.guitarnetwork.org *
****************************************************************************
     
Добавлено: 20.09.2013
Вам также может быть интересно:
Другие материалы по этой песне:
  • Аккорды и текст

Страница создана 20.09.2013
http://primanota.ru/straitjackets/sing-sing-sing-chords.htm
Привет, Гость.
Предлагаем пройти революционный курс по гитаре.
Подарок от PrimaNota.Ru, забирай!