PrimaNota.ru - самый крупный в мире бесплатный архив песенных текстов, аккордов, табулатур и нот


Straitjackets - Kawanga - таба, видео

Регистрация Запомнить меня
Войти через:  Facebook Google Twitter Vk Yandex Mail.ru

Straitjackets - Kawanga - таба, видео

Печатать
Просмотров: 96
artist: los straitjackets
song: kawanga!
album: the velvet touch of los strait jackets

this is a cool song by los straitjackets. i noticed
there wasn't anything on here by them, so i decided
to tab the one song i knew. if anyone knows where i
could get tabs of their music, or you think i suck
just e-mail me at Dethskreem@bolt.com


use distortion, and lots of reverb


----------------------------------
-----------------------0---3-5----
-----------------0-0-2------------
---------0-0-2-2------------------  riff 1
-----2-2--------------------------
-0-0------------------------------

that twice
then

-----------------------0----3-0---
-----------------0-0-3------------
---------0-0-2-2------------------
-----2-2--------------------------  riff 2
-0-0------------------------------
----------------------------------

then

----------------------------------
----------------------------------
---------2-2-------------0-0------
-----4-4-----4-4-----2-2-----2-2--
-2-2-------------0-0--------------  riff 3
----------------------------------

then riff 1 again..
then the drum solo part...
its just three chords..play E, E, A, E, B, A, E
with pauses in between where the drumer is going crazy

then its the whole thing again
but then play


--------------------------------------
-/9-9-9-10-9-9-9-10-9-9-9-10-9---9-10-
-/9--------9--------9----------9------
--------------------------------------
-------------------------------------- riff 4
--------------------------------------

that twice...it leads into a solo that i don't know yet

then riffs 1, 2, 3, 1 again

then it plays a part with riff 3, then ends on chord E
do that twice
and then


-------------------------------
-------------------------------
-------------------------------
-------------------------------
-------------------------------
-0-0-4-4-5-5-6-6-7-------------          end on chord E

-------------------------------------------------------
     
Добавлено: 26.07.2013
Другие материалы по этой песне:
  • Аккорды и текст

Страница создана 26.07.2013
http://primanota.ru/straitjackets/kawanga-chords.htm
Привет, Гость.
Предлагаем пройти революционный курс по гитаре.
Подарок от PrimaNota.Ru, забирай!