PrimaNota.ru - самый крупный в мире бесплатный архив песенных текстов, аккордов, табулатур и нот


Straight Outta Junior High - Happy Fun Song - таба, бас-таба, видео

Регистрация Запомнить меня
Войти через:  Facebook Google Twitter Vk Yandex Mail.ru

Straight Outta Junior High - Happy Fun Song - таба, бас-таба, видео

Печатать
Просмотров: 208
---------------------------------------------------------------------------
                            HAPPY FUN SONG
----------------------------------------------------------------------------

Straight Outta Junior High
Happy Fun Song


Tuning: Standard

INTRO CHORDS
e|-------------------------------------------------------------------------|
B|-------------------------------------------------------------------------|
G|-----------7-7----8-8----5-5----------7-7---8-8--------------------------|
D|----5-5----7-7----8-8----5-5----5-5---7-7---8-8-------Konichiwa!---------|
A|----5-5----5-5----6-6----3-3----5-5---5-5---6-6--------------------------|
E|----3-3-------------------------3-3--------------------------------------|

Добавлено: 06.06.2012
Другие материалы по этой песне:

Страница создана 12.03.2012
http://primanota.ru/straight-outta-junior-high/happy-fun-song-chords.htm
Привет, Гость.
Предлагаем пройти революционный курс по гитаре.
Подарок от PrimaNota.Ru, забирай!