PrimaNota.ru - самый крупный в мире бесплатный архив песенных текстов, аккордов, табулатур и нот


Straight Outta Junior High - Cell Phones Suck - таба, видео

Регистрация Запомнить меня
Войти через:  Facebook Google Twitter Vk Yandex Mail.ru

Straight Outta Junior High - Cell Phones Suck - таба, видео

Печатать
Просмотров: 58
Cell Phones Suck
By: Straight Outta Junior High

Tab submitted by Grapefruit7

Main riff

e----------------------------------------------------------------------|
B------9-10-12-10-9----------9-10-9--------------9-10-9----------------|
G-9-11--------------9-8-9-11--------11-9----9-11--------11-9-----------|
D----------------------------------------11----------------------------|
A----------------------------------------------------------------------|
E----------------------------------------------------------------------|

/---------------------------
|        1st ending        |      2nd ending
e--------------------------|--------------------------------------------|
B--------------------9-----|-----------------10-9-----------------------|
G----9-11h13p11---11---8-.-|------9-11h13p11------11-8-9----------------|
D-11------------9--------.-|---11---------------------------------------|
A--------------------------|--------------------------------------------|
E--------------------------|--------------------------------------------|


Intro chords (2x)

e------------------------------------|
B------------------------------------|
G--9---------------------------------|
D--9-----9-----11-----7-----9--------|
A--7-----9-----11-----7-----9--------|
E--------7-----9------5-----7--------|

Verse (2x)

e------------------------------------|
B------------------------------------|
G--9---------------------------------|
D--9-----9-----11-----7-----9--------|
A--7-----9-----11-----7-----9--------|
E--------7-----9------5-----7--------|

Pre-Chorus

e------------------------------------|
B------------------------------------|
G-------9--------------9-------------|
D--7----9----9----7----9----9--------|
A--7----7----9----7----7----9--------|
E--5---------7----5---------7--------|

Chorus

e--------------------------------------------|
B--------------------------------------------|
G------4---6----------4---66~/8/9\8\6\4------|
D--7---4---6------7---4---xx~-x-x-x-x-x------|
A--7---2---4------7---2---44~/6/7\6\4\2------|
E--5--------------5--------------------------|

e------------------------------------|
B------------------------------------|
G------4---6----------4---9----------|
D--7---4---6------7---4---9----------|
A--7---2---4------7---2---7----------|
E--5--------------5------------------|

Interlude
Gtr 1 (x4)

e------------------------------------|
B------------------------------------|
G--9---8--4-6---4---8-11-------------|
D--x---x--x-x---x---x-x--------------|
A--7---6--2-4---2---6-9--------------|
E------------------------------------|

Interlude
Gtr 2
(comes in after gtr 1 plays part 1x)

e-------------------|
B-------------------|
G--9----11---8------|
D--x----x----x------|(x4)
A--7----9----6------|
E-------------------|

e------------------------------------|
B------------------------------------|
G--9----11---14---13---14-13-11-8----|
D--x----x-----x----x----x--x--x-x----|
A--7----9----12---11---12-11--9-6----|(x1)
E------------------------------------|

Main riff/Intro Chords and then...


(I'll have you know....)
e---------------------------------------------------|
B---------------------------------------------------|
G---9-9999999--8------------------------------------|
D--(9)9999999-(8)-----------------------------------|
A---7-7777777--6------------------------------------|
E---------------------------------------------------|

I only dated you to piss off your boyfriend!
e------------------0--0-0---|
B----------------0-0--0-0---|
G---------1-1--1-1-1--1-1---|
D--2-2--2-2-2--2-2-2--2-2---|
A--2-2--2-2-2--2-2-2--2-2---|
E--0-0--0-0-0--0-0-0--0-0---|


Then just play the chorus and the main riff (second ending only)
Добавлено: 20.06.2016
Другие материалы по этой песне:
  • Аккорды и текст

Страница создана 20.06.2016
http://primanota.ru/straight-outta-junior-high/cell-phones-suck-chords.htm
Привет, Гость.
Предлагаем пройти революционный курс по гитаре.
Подарок от PrimaNota.Ru, забирай!