PrimaNota.ru - самый крупный в мире бесплатный архив песенных текстов, аккордов, табулатур и нот


The Storybook People - Do You Believe 1394 - бас-таба, видео

Регистрация Запомнить меня
Войти через:  Facebook Google Twitter Vk Yandex Mail.ru

The Storybook People - Do You Believe 1394 - бас-таба, видео

Печатать
Просмотров: 76
Уроки эстрадного вокала в Санкт-Петербурге
Tabbed by: 6METAL6BASSIST6
E-mail: petergriffinav@gmail.com

Tuning: EADG

0:12

G|--------|
D|--------|
A|10\-----|
E|--------|

G|----------------------------------------------------------------|
D|------------5---------------5---------------5-------------------|
A|3---------------3---3-----------3---------------3---3-----------|
E|----------------------------------------------------------------|

0:16

G|----------------------------------------------------------------|
D|7-------------------------------7-----------------------7---6---|
A|------------7-----------7-------------------7-------7-----------|
E|----------------------------------------------------------------|

G|----------------------------------------------------------------|
D|5-------------------------------5-----------------------5---4---|
A|------------5-----------5-------------------5-------5-----------|
E|----------------------------------------------------------------|

G|----------------------------------------------------------------|
D|3-------------------------------3-----------------------3-------|
A|------------3-----------3-------------------3-------3-------5---|
E|----------------------------------------------------------------|

G|----------------------------------------------------------------|
D|------------5---------------5---------------5-------------------|
A|3---------------3---3-----------3---------------3---3-----------|
E|----------------------------------------------------------------|

0:33

G|----------------------------------------------------------------|
D|7-------------------------------7-----------------------7---6---|
A|------------7-----------7-------------------7-------7-----------|
E|----------------------------------------------------------------|

G|----------------------------------------------------------------|
D|5-------------------------------5-----------------------5---4---|
A|------------5-----------5-------------------5-------5-----------|
E|----------------------------------------------------------------|

G|----------------------------------------------------------------|
D|3-------------------------------3-----------------------3-------|
A|------------3-----------3-------------------3-------3-------5---|
E|----------------------------------------------------------------|

G|----------------------------------------------------------------|
D|------------5---------------5---------------5-------------------|
A|3---------------3---3-----------3---------------3---3-----------|
E|----------------------------------------------------------------|

0:50

G|------------9---------------------------------------------------|
D|7-------------------------------7-----------------------7---6---|
A|------------------------7-------------------7-------7-----------|
E|----------------------------------------------------------------|

G|------------7---------------------------------------------------|
D|5-------------------------------5-----------------------5---4---|
A|------------------------5-------------------5-------5-----------|
E|----------------------------------------------------------------|

G|------------5---------------------------------------------------|
D|3-------------------------------3-----------------------3-------|
A|------------------------3-------------------3-------3-------5---|
E|----------------------------------------------------------------|

G|----------------------------------------------------------------|
D|------------5---------------5---------------5-------------------|
A|3---------------3---3-----------3---------------3---3-----------|
E|----------------------------------------------------------------|

Repeat from 0:16







1:57

G|----------------------------------------------------------------|
D|7-------------------------------7-----------------------7---6---|
A|------------7-----------7-------------------7-------7-----------|
E|----------------------------------------------------------------|

G|----------------------------------------------------------------|
D|5-------------------------------5-----------------------5---4---|
A|------------5-----------5-------------------5-------5-----------|
E|----------------------------------------------------------------|

G|----------------------------------------------------------------|
D|3-------------------------------3-----------------------3-------|
A|------------3-----------3-------------------3-------3-------5---|
E|----------------------------------------------------------------|

G|----------------------------------------------------------------|
D|------------5---------------5---------------5-------------------|
A|3---------------3---3-----------3---------------3---3-----------|
E|----------------------------------------------------------------|

2:15

G|----------------------------------------------------------------|
D|7-------------------------------7-----------------------7---6---|
A|------------7-----------7-------------------7-------------------|
E|----------------------------------------------------------------|

G|------------7---------------------------------------------------|
D|5-------------------------------5-----------------------5---4---|
A|------------------------5-------------------5-------5-----------|
E|----------------------------------------------------------------|

G|------------5---------------------------------------------------|
D|3-------------------------------3-----------------------3-------|
A|------------------------3-------------------3-------3-------5---|
E|----------------------------------------------------------------|

G|----------------------------------------------------------------|
D|------------5---------------5---------------5-------------------|
A|3---------------3---3-----------3---------------3---3-----------|
E|----------------------------------------------------------------|

2:32

G|------------9---------------------------------------------------|
D|7-------------------------------7-----------------------7---6---|
A|------------------------7-------------------7-------7-----------|
E|----------------------------------------------------------------|

G|------------7---------------------------------------------------|
D|5-------------------------------5-----------------------5---4---|
A|------------------------5-------------------5-------5-----------|
E|----------------------------------------------------------------|

G|------------5---------------------------------------------------|
D|3-------------------------------3-----------------------3-------|
A|------------------------3-------------------3-------3-------5---|
E|----------------------------------------------------------------|

G|----------------------------------------------------------------|
D|----------------------------------------------------------------|
A|3-----3-----3-----3-------3---------3---------3-----------------|
E|----------------------------------------------------------------|
Добавлено: 15.06.2016
Другие материалы по этой песне:
  • Аккорды и текст

Страница создана 15.06.2016
http://primanota.ru/storybook-people/do-you-believe-1394-chords.htm
Привет, Гость.
Предлагаем пройти революционный курс по гитаре.
Подарок от PrimaNota.Ru, забирай!