PrimaNota.ru - самый крупный в мире бесплатный архив песенных текстов, аккордов, табулатур и нот


Story Of The Year - So Far So Good - текст песни, таба, видео

Регистрация Запомнить меня
Войти через:  Facebook Google Twitter Vk Yandex Mail.ru

Story Of The Year - So Far So Good - текст песни, таба, видео

Печатать
Просмотров: 185
Song: So far so good
Artist: Story of the Year

Standard tuning

INTRO clean...
-|------------------------------------------------------------------|
-|------------------------------------------------------------------|
-|------------------------------------------------------------------|
-|---9-----------------12-12-12---------------------------12-12-12--|
-|---7-7-7--7-7-7-9-10----------10-7-9-10-10-10-10-97h9-10----------|
-|------------------------------------------------------------------|

-|------------------------------------------------------------------|
-|------------------------------------------------------------------|
-|------------------------------------------------------------------|
-|---9-----------------12-12-12--121212--121212-1212---9-let ring...|
-|---7-7-7--7-7-7-9-10---------------------------------7------------|
-|------------------------------------------------------------------|


Intro 2 Distorted
-|--------------------------------------------------------------------|
-|--------------------------------------------------------------------|
-|----7-9-9-9-------------7--9-9-9------------------------------------|
-|----7-9-9-9--10-10------7--9-9-9--10-12-----------------------------|
-|----5-7-7-7--10-10------5--7-7-7--10-12-----Repeat 4x---------------|
-|---------------8-8-----------------8--10----------------------------|

-|--------------------------------------------------------------------|
-|--------------------------------------------------------------------|
-|-------7-9-9-9------7--9-9-9----------------------------------------|
-|-------7-9-9-9--10--7--9-9-9----------------------------------------|
-|-------5-7-7-7--10--5--7-7-7-10-10-10-10-10--12-12-12-12-12-12-12---|
-|------------------8------------8-8-8-8-8-8-8--10-10-10-10-10-10-10--|

-|------------------------------------------------------------------|
-|------------------------------------------------------------------|
-|---12-12-12-12---11-11-11-11--------------------------------------|
-|----x--x--x--x----x--x--x--x--------------------------------------|
-|---10-10-10-10----9--9--9--9--------------------------------------|
-|------------------------------------------------------------------|

+++++++++++++++++++++++++++++++++++++++++++++++++++++++++++++++++++++

  VERSE
-|-------------------------------------------------------------------|
-|-------------------------------------------------------------------|
-|-----9-------9----------------------------7---7--12-12-12-12111111-|
-|-9-9-9---9-9-9--------10--------10----7-7-7-7-7---x-x--x--x-x-x-x--|
-|-7-7-7---7-7-7--10-10-10--10-10-10----5-5-5-5-5--10-10-10-10-9-9-9-|
-|-----------------8--8--8---8--8--8---------------------------------|
PM..................................................................

Pre Chorus
-|------------------------------------------------------------------|
-|------------------------------------------------------------------|
-|-9-9-9--11-11-11-11---12-12-12-12------11-11-11-11--12-12-12-12---|
-|-9-9-9---x--x--x--x----x--x--x--x--12---x--x--x--x---x--x--x-x----|
-|-7-7-7---9--9--9--9---10-10-10-10--12---9--9--9--9--10-10-10-10-12|
-|-----------------------------------10---------------------------10|

+++++++++++++++++++++++++++++++++++++++++++++++++++++++++++++++++++++

CHORUS
-|------------------------------------------------------------------|
-|------------------------------------------------------------------|
-|------9----------9------------------------------------------------|
-|------9----10----9----10-10--12-12--------------------------------|
-|------7----10----7----10-10--12-12--------------------------------|
-|------------8----------8--8--10-10--------------------------------|

-|--------------------------------------------------------------------|
-|--------------------------------------------------------------------|
-|------9----------9--------------------------------------------------|
-|------9----10----9----10-10--12-12----------------------------------|
-|------7----10----7----10-10--12-12----------------------------------|
-|------------8----------8--8--10-10---Let-it-ring…-------------------|

+++++++++++++++++++++++++++++++++++++++++++++++++++++++++++++++++++++

Bridge Repeat 4x
-|--------------------------------------------------------------------|
-|--------------------------------------------------------------------|
-|---------9v9v9v9v--11-11-11-11---12-12-12-12-12-12/1412-11----------|
-|---------9-9-9-9----x--x--x--x----x--x--x--x--x--x/-x-x--x----------|
-|---------7-7-7-7----9--9--9--9---10-10-10-10-10-10/1210--9----------|
-|--------------------------------------------------------------------|

+++++++++++++++++++++++++++++++++++++++++++++++++++++++++++++++++++++

-|--------------------------------------------------------------------|
-|--------------------------------------------------------------------|
-|----7-9-9-9-------------7--9-9-9------------------------------------|
-|----7-9-9-9--10-10------7--9-9-9--10-12-----------------------------|
-|----5-7-7-7--10-10------5--7-7-7--10-12-----Repeat 4x---------------|
-|---------------8-8-----------------8--10----------------------------|

-|--------------------------------------------------------------------|
-|--------------------------------------------------------------------|
-|-------7-9-9-9------7--9-9-9----------------------------------------|
-|-------7-9-9-9--10--7--9-9-9----------------------------------------|
-|-------5-7-7-7--10--5--7-7-7-10-10-10-10-10--12-12-12-12-12-12-12---|
-|------------------8------------8-8-8-8-8-8-8--10-10-10-10-10-10-10--|

-|------------------------------------------------------------------|
-|------------------------------------------------------------------|
-|---12-12-12-12---11-11-11-11--------------------------------------|
-|----x--x--x--x----x--x--x--x--------------------------------------|
-|---10-10-10-10----9--9--9--9--------------------------------------|
-|------------------------------------------------------------------|

+++++++++++++++++++++++++++++++++++++++++++++++++++++++++++++++++++++

End
-|-------------------------|
-|-------------------------|
-|----9--------------------|
-|----9----------2---------|
-|----7----------2---------|
-|---------------0---------|
Добавлено: 13.06.2012
Другие материалы по этой песне:
  • Аккорды и текст

Страница создана 03.05.2012
http://primanota.ru/story-of-the-year/so-far-so-good-chords.htm
Привет, Гость.
Предлагаем пройти революционный курс по гитаре.
Подарок от PrimaNota.Ru, забирай!