PrimaNota.ru - самый крупный в мире бесплатный архив песенных текстов, аккордов, табулатур и нот


Stormtroopers Of Death - Speake english or die - таба, видео

Регистрация Запомнить меня
Войти через:  Facebook Google Twitter Vk Yandex Mail.ru

Stormtroopers Of Death - Speake english or die - таба, видео

Печатать
Просмотров: 85
Уроки эстрадного вокала в Санкт-Петербурге


Fretplay.com
Song Title:Speak English Or Die
By:S.O.D.
Legend:X=Scratch
Tabbed By Jacob Goodboe

e:-------------------------
B:-------------------------
G:-------------------------       12X
D:-----4-5-------------------
A:-2---2-3--5--4----------------
E:-0--------3--2--------------

e:-----------------------------
B:-----------------------------
G:-----------------------------    4X
D:-----------------------------
A:-2--5--8--9----------------------
E:-0--3--5--6----------------------

e:-----------------------------
B:-----------------------------
G:-----------------------------
D:-----------------------------
A:-2--2--2--2----------------------
E:-0--0--0--0----------------------

e:---------------------------
B:---------------------------
G:---------------------------       12X
D:-----4-5---------------------
A:-2---2-3-5--4-------------------
E:-0-------3--2-----------------

e:---------------------------
B:---------------------------
G:---------------------------        4X
D:---------------------------
A:-2--5--8--9-------------------
E:-0--3--5--6--------------------

e:-----------------------------
B:-----------------------------
G:-----------------------------     4X
D:---x--4-x-5-----------------------
A:-2-x--2-x-3--x-3--2-------------------
E:-0-----------x-5--4--------------

e:------------------------------
B:------------------------------
G:------------------------------
D:------------------------------
A:-5x-5x-5x-5x--3x-3x-3x-3x---------------------
E:-3x-3x-3x-3x--1x-1x-1x-1x---------------------

Play Verse 6 Again
Play Verse 7 Again
Play Verse 6 Again
Play Verse 7 Again
Play Verse 6 Again
Play Verse 7 Again With A Slowing Ending

Play Verse 2
Play Verse 1 One Time For The Ending


If There Is Any Comments Email Me At (georgesherk@netzero.com)



Добавлено: 22.11.2013
Другие материалы по этой песне:
  • Аккорды и текст

Страница создана 22.11.2013
http://primanota.ru/stormtroopers-of-death/speake-english-or-die-chords.htm
Привет, Гость.
Предлагаем пройти революционный курс по гитаре.
Подарок от PrimaNota.Ru, забирай!