PrimaNota.ru - самый крупный в мире бесплатный архив песенных текстов, аккордов, табулатур и нот


Storm The Sky - Dumblecore - таба, видео

Регистрация Запомнить меня
Войти через:  Facebook Google Twitter Vk Yandex Mail.ru

Storm The Sky - Dumblecore - таба, видео

Печатать
Просмотров: 90
Artist: Storm The Sky
Song: Dumblecore
Album: Storm The Sky EP
Facebook: http://www.facebook.com/stormthesky

It's hard to hear the palm muted parts properly but this is how I play it.

|---------------------------|-------------------|
|------------x-3------------|-------------------|
|---------------------------|-------------------|
|---------------------------|-------------------|
|-0-0-0---0-0---0-0---------|-0-0-0---0-0---0-0-|
|-0-0-0---0-0---0-0--1111111|-0-0-0---0-0---0-0-|
  . . .   . .   . .  .......  . . .   . .   . . 

|-----------------------------------|
|-----------------------------------|
|-----------------------------------|
|-------------------------0~--------|
|-0-000--0-0--0-0--0-0-0--0~------0-|
|-0-000--0-0--0-0--1-1-1--0~------0-|
  . ...  . .  . .  . . .          .

|------------------------------------------|
|-------------------x-2--------------------|
|------------------------------------------|
|------------------------------------------|
|-00000--0-0--0-0--0000000---0-0-0---0-000-|
|-00000--0-0--0-0--0000000---0-0-0---0-000-|
  .....  . .  . .  .......   . . .   . ....

|----------------------------------------|
|----------------------------------------|
|----------------------------------------|
|----------------------------------------|
|-00000--0-0--0-0--1-1-1--0-0-0---0-0000-|
|-11111--1-1--1-1--1-1-1--0-0-0---0-0000-|
  .....  . .  . .  . . .  . . .   . ....

|----------------------------------------|
|----------------------------------------|
|----------------------------------------|
|----------------------------------------|
|-00000--0-0--0-0--0-0-0--0-0-0---0-0000-|
|-00000--0-0--0-0--1-1-1--0-0-0---0-0000-|
  .....  . .  . .  . . .  . . .   . ....

The final open notes are muted, listen to the song to get the timing right.
|---------------------------|------|
|------------x-2------------|--x4--|
|---------------------------|------|
|---------------------------|--0~--|
|-0-0-0---0-0---0-0---------|--0~--|
|-0-0-0---0-0---0-0--1111111|--0~--|
  . . .   . .   . .  ....... 
Добавлено: 21.10.2013
Другие материалы по этой песне:
  • Аккорды и текст

Страница создана 21.10.2013
http://primanota.ru/storm-the-sky/dumblecore-chords.htm
Привет, Гость.
Предлагаем пройти революционный курс по гитаре.
Подарок от PrimaNota.Ru, забирай!