PrimaNota.ru - самый крупный в мире бесплатный архив песенных текстов, аккордов, табулатур и нот


Storm Large - Geraldine - таба, видео

Регистрация Запомнить меня
Войти через:  Facebook Google Twitter Vk Yandex Mail.ru

Storm Large - Geraldine - таба, видео

Печатать
Просмотров: 120
Title: Geraldine
Artist: Storm Large & Michael Cavaseno

Tabbed by: Federico Lebron


This is in standard tuning.
The intro and the last part are basically arpeggios of D, F#7, Bm, G repeated
over and over. Also some versions differ in the lyrics a bit, for instance
"I can't see the sun when the floor is in my way", but the chords would be
the same in those cases.
Many thanks to Michael Cavaseno for helping me out on this one. :)




Intro:

(Arpeggio D, F#7, Bm, G)

e|--------0--2---------0------------------------3------------------|
B|-------------3----------2---------------------0------------------|
G|------2--------------------------4------------0------------------|
D|---0--------------4-----------4-----4---------0--0---------------|
A|---------------4-----------2---------------2---------------------|
E|----------------------------------------3------------------------|

e|--------0--2---------0------------------------3------------------|
B|-------------3----------2---------------------0------------------|
G|------2--------------------------4------------0------------------|
D|---0--------------4-----------4-----4---------0--0---------------|
A|---------------4-----------2---------------2---------------------|
E|----------------------------------------3------------------------|



D                     F#7         Bm    G
Things are looking so different today
D                     F#7         Bm    G
Things are looking so different today
D                  F#7  Bm             G
I can't smile that wide since you went away
D                     F#7         Bm    G
Things are looking so different today

A                  A           D                 Bm
Ice cream isn't as messy as I was when you were around
   A                    A                D               Bm 
My hat just falls right off of me 'cause my head is hanging down
A                    A               D             Bm 
Children look around wandering as if waking from a dream
E       A
Oh Geraldine, they miss you


D                     F#7         Bm    G
Things are looking so different today
D                     F#7         Bm    G
Things are looking so different today
D                F#7          Bm             G
I don't laugh as easily since you were taken away
D                     F#7         Bm    G
Things are looking so different today

            A                 A
And all the flowers lack some color
          D                 Bm 
And their scent is a little weak
    A                 A                D                 Bm
The babblin' brook is silent 'cause he lost the heart to speak
        A              A                  D                    Bm
All the angels and the birds are hushed because you were their queen
E       A
Oh Geraldine, they miss you

D                  F#7       Bm       G
Things are looking different today
D                     F#7         Bm    G
Things are looking so different today
D                F#7          Bm             G
I don't laugh as easily since you were taken away

D                  F#7
Things are looking different
Bm                 G
Things are looking different
D                  F#7       Bm
Things are looking different today

Ooooh...

e|--------0--2---------0------------------------3------------------|
B|-------------3----------2---------------------0------------------|
G|------2--------------------------4------------0------------------|
D|---0--------------4-----------4-----4---------0--0---------------|
A|---------------4-----------2---------------2---------------------|
E|----------------------------------------3------------------------|

e|--------0--2---------0------------------------3------------------|
B|-------------3----------2---------------------0------------------|
G|------2--------------------------4------------0------------------|
D|---0--------------4-----------4-----4---------0--0---------------|
A|---------------4-----------2---------------2---------------------|
E|----------------------------------------3------------------------|


D, F#7, Bm, G
D, F#7, Bm, G

            A                   A
And now the summertime isn't as sunny
        D                  Bm
And the spring it ain't so new
    A             A               D            Bm
And nobody can be funny or hold a candle up to you
  A                       A
I called out a greedy old bastard
       D            Bm
Taking you away was mean
E       A
Oh Geraldine,
Oh Geraldine,

D                  F#7       Bm     G
Things are looking different today
D                 F#7 Bm  G 
Things are looking so different
D               F#7          Bm             G
I can't see the sun when the floor is in my way
D                  F#7
Things are looking different
Bm                 G
Things are looking different
D                  F#7       Bm
Things are looking different today
           G     D  F#7  Bm
Now you've gone away
           G     D  F#7
Now you've gone away
Bm G       D  F#7
Oh oh Geraldine,
Bm G    G    D  F#7   Bm
My Geraldine,

        G            D
And the children are singing

D          F#7        Bm    G
All things bright and beautiful
D          F#7        Bm
All things great and small
   G D F#7 Bm
Oh Geraldine,
D          F#7       Bm
All things great and small


Geraldine
Things are looking so very different today
Добавлено: 25.02.2012
Другие материалы по этой песне:
  • Аккорды и текст

Страница создана 25.02.2012
http://primanota.ru/storm-large/geraldine-chords.htm
Привет, Гость.
Предлагаем пройти революционный курс по гитаре.
Подарок от PrimaNota.Ru, забирай!