PrimaNota.ru - самый крупный в мире бесплатный архив песенных текстов, аккордов, табулатур и нот


Storm Corrosion - Happy - таба, видео

Регистрация Запомнить меня
Войти через:  Facebook Google Twitter Vk Yandex Mail.ru

Storm Corrosion - Happy - таба, видео

Печатать
Просмотров: 101
Уроки эстрадного вокала в Санкт-Петербурге
Авторы музыки: Mikael Åkerfeldt, Steven Wilson

-------------------------------------------------------------------------------
                             HAPPY - Storm Corrosion
-------------------------------------------------------------------------------
Tabbed by: Aays
E-mail: blankepitaph@live.ca

I've been meaning to get working on this great song for a while.
Messing around with the fingerings, I'm 99% sure that Mikael uses a capo on the 3rd
fret, so this tab is relative to that.
Again, done entirely by ear, so forgive any mistakes (and preferably point them out in
the comments).

EDIT (4/3/2013) - I stumbled upon a cover of this song on youtube, and that version was
far more accurate and logical than mine. I'm going to leave my interpretation of some of
these parts for the heck of it, but the corrected parts are also below, courtesy of Ben 
(bostoys@gmail.com), along with some minor corrections in the other bits. Check out his
fantastic cover at youtube.com/watch?v=_WvcI9RNwpQ when you can!

Tuning: Standard (EADGBe) - capo 3rd fret

(My interpretation)
e|-----------------0---------------------------------------------------------|
B|----------4----------4---4-------------------------------------------------|
G|-----2------2----------2---------------------------------------------------|
D|-------5------5------------------------------------------------------------|  x4
A|--0------------------------------------------------------------------------|
E|---------------------------------------------------------------------------|


e|-----------4----------0----------------------------------------------------|
B|------5-------5------------5---5-------------------------------------------|
G|--------5--------5-----------5---------------------------------------------|
D|--3------------------------------------------------------------------------|  x2
A|---------------------------------------------------------------------------|
E|---------------------------------------------------------------------------|

(the following two bars are Ben's interpretation of the above two parts, and are far
more logical to me)
e|-----------------0---------------------------------------------------------|
B|----------4---------4------------------------------------------------------|
G|--------0---0---------0----------------------------------------------------|
D|------7-------7---------7--------------------------------------------------|
A|--0------------------------------------------------------------------------|
E|---------------------------------------------------------------------------|

e|----------------0----------------------------------------------------------|
B|---------9--------9--------------------------------------------------------|
G|-------0---0--------0------------------------------------------------------|
D|-----6-------6--------6----------------------------------------------------|
A|--8------------------------------------------------------------------------|
E|---------------------------------------------------------------------------|


e|-------------------1-------------------------------------------------------|
B|-----------0-----------0---------------------------------------------------|
G|--------0-----0----------0-------------------------------------------------|
D|------3---------3----------3-----------------------------------------------|  x2
A|--4------------------------------------------------------------------------|
E|---------------------------------------------------------------------------|

e|------------------0--------------------------------------------------------|
B|-----------3----------3----------------------------------------------------|
G|--------4----4----------4--------------------------------------------------|
D|-----2---------2----------2------------------------------------------------|  x4
A|--0------------------------------------------------------------------------|
E|---------------------------------------------------------------------------|
The above four bars are repeated for pretty much 80 percent of the song.


Acoustic Interlude + Backing Guitar during solo (all credit to Ben once again!)
e|------0----------------------0------0------0-------------------0------0----|
B|----0-----0---------0------1---1---------0-----0-------------1---1---------|
G|--2-----0----------------2-------2-----5-----4----2p0----0-2-------2-------|
D|-------------2p0--------------------------------------2--------------------|
A|-----------------2-----0---------------------------------------------------|
E|---------------------------------------------------------------------------|

e|------0----------------------0------0-------0------------------------------|
B|----0-----0---------0------1---1----------0----0---1---------------0-------|
G|--2-----0----------------2-------2-----/7--------0---0-----------2---2-----|
D|-------------2p0-------------------------------0---2-----------2-------2---|
A|-----------------2-----0--------------------------------3-5-0--------------|
E|---------------------------------------------------------------------------|


Solo near the end (panned left-ish) - NOT tabbed relative to capo
e|---------------------------------------------------------------------------|
B|---------------------------------------------------------------------------|
G|---------------------------/8--7-------------------------------------------|
D|--/10---8-------------------------10--8------8/10--------------------------|
A|-----------10--8--6----------------------10--------------------------------|
E|---------------------8-----------------------------------------------------|

e|---------------------------------------------------------------------------|
B|---------------------------------------------------------------------------|
G|---------------------------10--7---8p7-------------------------------------|
D|--/10---8--------------------------------8---8/10--------------------------|
A|-----------10--8--6--------------------------------------------------------|
E|---------------------8-----------------------------------------------------|

e|---------------------------------------------------------------------------|
B|-------------------------------------------13p11-----11--------------------|
G|-----------------------------------------x--------12-----------------------|
D|-------10--10/12--10--12--12h13--10----x----------------12-12h13p12--------|
A|----10---------------------------------------------------------------------|
E|--8------------------------------------------------------------------------|
(note the rake onto the B string)

e|---------------------------------------------------------------------------|
B|-11p8----------------------------------------------------------------------|
G|------10v------------------------------------------------------------------|
D|----------------(10)--(8)--------------------------------------------------|
A|---------------------------(10)--(8)--(6)----------------------------------|
E|-------------------------------------------(8)-----------------------------|
I -think- Mikael keeps playing those last notes in brackets till fadeout

Please rate, comment, and once again enjoy :)


************************************

| /   slide up
| \   slide down
| h   hammer-on
| p   pull-off
| ~   vibrato
| +   harmonic
| x   Mute note
| b   Bend
| pb  Pre-bend
| br  Bend release
| pbr Pre-bend release
| brb Bend release bend

************************************
Добавлено: 20.10.2013
Другие материалы по этой песне:

Страница создана 20.10.2013
http://primanota.ru/storm-corrosion/happy-chords.htm
Привет, Гость.
Предлагаем пройти революционный курс по гитаре.
Подарок от PrimaNota.Ru, забирай!