PrimaNota.ru - самый крупный в мире бесплатный архив песенных текстов, аккордов, табулатур и нот


Stoned - The Only One - бас-таба, видео

Регистрация Запомнить меня
Войти через:  Facebook Google Twitter Vk Yandex Mail.ru

Stoned - The Only One - бас-таба, видео

Печатать
Просмотров: 106
-----------------------------------------------------------------------------
                             The Only One - Stoned
-----------------------------------------------------------------------------
Tabbed by: filiot96
E-mail: filiotrix@gmail.com

Tuning:Standard Tuning

Intro#
G|-------------------------------------------------------|
D|-------------------------------------------------------|
A|----0h2-22--0h2-55-4p2-------------0h2-22-0h2-55-4h5-7-|
E|-55--------------------00-00224-55---------------------|

Verse#4x
G|------------------------------------------------------|
D|------------------------------------------------------|
A|-------------2-222-2-222-4-5-555-5-5-2-4--------------|
E|-5-555-5-555------------------------------0-000-0-000-|

Chorus#
G|---------------------------------------------------------------------------------|
D|---------------------------------------------------------------------------------|
A|----------55555555----------7777-5577----------55555555----------44444444-55--77-|
E|-22222222----------55555555-----------22222222----------55555555-----------------|

Verse#2x

Bridge#
G|--------------------------------------------------------|
D|--------------------------------------------------------|
A|-55555555----------44444444-----------55555555-77777777-|
E|----------55555555----------2222-0000-------------------|

Chorus2#
G|---------------------------------------------------------------------------------|
D|---------------------------------------------------------------------------------|
A|----------55555555----------7777-5577----------55555555----------444444444444444-|
E|-22222222----------55555555-----------22222222----------55555555-----------------|

Chorus#

Interlude#
G|---|
D|---|
A|---|
E|-5-|

Outro#fade out
G|---------------------------------------|
D|---------------------------------------|
A|------4577-5799-9-7-444-2455-4577-75---|
E|-5555-------------------------------55-|


| /  slide up
| \  slide down
| h  hammer-on
| p  pull-off
| ~  vibrato
| +  harmonic
| x  Mute note
=============================================================================
Добавлено: 31.07.2013
Вам также может быть интересно:
Другие материалы по этой песне:
  • Аккорды и текст

Страница создана 31.07.2013
http://primanota.ru/stoned/the-only-one-chords.htm
Привет, Гость.
Предлагаем пройти революционный курс по гитаре.
Подарок от PrimaNota.Ru, забирай!