PrimaNota.ru - самый крупный в мире бесплатный архив песенных текстов, аккордов, табулатур и нот


Stoned - Supermarket Girlfriend - бас-таба, видео

Регистрация Запомнить меня
Войти через:  Facebook Google Twitter Vk Yandex Mail.ru

Stoned - Supermarket Girlfriend - бас-таба, видео

Печатать
Просмотров: 81
-----------------------------------------------------------------------------
                             Supermarket Girlfriend - Stoned
-----------------------------------------------------------------------------
Tabbed by: filiot96
E-mail: filiotrix@gmail.com

Tuning:Standard Tuning

Intro#
G|----------------------------------------------------------------|
D|----------------------------------------------------------------|
A|-3333333333333333-5555555555555555----------55555555-33333333-5-|
E|-----------------------------------33333333---------------------|

Pre-Verse#
G|----------1-Part-----------------|----------2-Part---------------|
D|---------------------------------|-------------------------------|
A|-------------------33333333-5-35-|----------------33333333-5-35--|
E|-33333333-00000000---------------|33333333-0000000-------------3-|

Verse#5x
G|-------------------------------------|
D|-------------------------------------|
A|-------------------33333333-55555555-|
E|-33333333-00000000-------------------|

Chorus#
G|--------------------------------------------------------------------------|
D|--------------------------------------------------------------------------|
A|---------------------33333333-----------------------------333333-55555555-|
E|-55555555-3-11111111----------3333320-55555555-3-11111111-----------------|

Pre-Verse.2-Part#,Verse#2x,Chorus#

Bridge#
G|-------------------------------------|
D|-10------------------10------9----10-|
A|------10----12----7------10----------|
E|-------------------------------------|

Chorus#

Outro#
G|----------------------------|
D|----------------------------|
A|-------------3-333-5--3-5---|
E|-3-333-0-000--------------3-|

http://www.discogs.com/artist/Stoned
http://www.myspace.com/stonedrocks

| /  slide up
| \  slide down
| h  hammer-on
| p  pull-off
| ~  vibrato
| +  harmonic
| x  Mute note
=============================================================================
Добавлено: 09.11.2013
Другие материалы по этой песне:
  • Аккорды и текст

Страница создана 09.11.2013
http://primanota.ru/stoned/supermarket-girlfriend-chords.htm
Привет, Гость.
Предлагаем пройти революционный курс по гитаре.
Подарок от PrimaNota.Ru, забирай!