PrimaNota.ru - самый крупный в мире бесплатный архив песенных текстов, аккордов, табулатур и нот


Stoned - Partyland - бас-таба, видео

Регистрация Запомнить меня
Войти через:  Facebook Google Twitter Vk Yandex Mail.ru

Stoned - Partyland - бас-таба, видео

Печатать
Просмотров: 84
-----------------------------------------------------------------------------
                             Partyland - Stoned
-----------------------------------------------------------------------------
Tabbed by: filiot96
E-mail: filiotrix@gmail.com

Tuning:Standard Tuning

Main-Riff#3x
G|-------------------------------------|
D|--55-----------------2200-----220044-|
A|----557755-333532--------22-33-------|
E|-----------------5-3-----------------|

Variation#
G|------------------------------------|
D|--55------------------------5-55555-|
A|----557755-3333532--7-5-3-5---------|
E|------------------5-----------------|

Verse#2x
G|---------------------------------|
D|-55555540----------------------4-|
A|----------2222222-333333-555555--|
E|---------------------------------|

Interlude#
G|--------------|
D|-555555555555-|
A|--------------|
E|--------------|

Verse#2x

Pre-Chorus#
G|------------------|
D|---------55555555-|
A|-7-5-3-5----------|
E|------------------|

Chorus#
G|----------------------------------------------------|
D|----------------------------------------------------|
A|--------333333-555555-333333--------333333-555555-3-|
E|-333333----------------------333333-----------------|

Main-Riff#2x,Verse#2x,Interlude#,Verse#2x,Pre-Chorus#

End-Chorus#6x
G|-----------------------------|
D|-----------------------------|
A|--------333333-555555-333333-|
E|-333333----------------------|

End#
G|-----|
D|-----|
A|-----|
E|-3-3-|

| /  slide up
| \  slide down
| h  hammer-on
| p  pull-off
| ~  vibrato
| +  harmonic
| x  Mute note
=============================================================================
Добавлено: 04.09.2013
Другие материалы по этой песне:
  • Аккорды и текст

Страница создана 04.09.2013
http://primanota.ru/stoned/partyland-chords.htm
Привет, Гость.
Предлагаем пройти революционный курс по гитаре.
Подарок от PrimaNota.Ru, забирай!