PrimaNota.ru - самый крупный в мире бесплатный архив песенных текстов, аккордов, табулатур и нот


Stoned - Jukebox Jim - бас-таба, видео

Регистрация Запомнить меня
Войти через:  Facebook Google Twitter Vk Yandex Mail.ru

Stoned - Jukebox Jim - бас-таба, видео

Печатать
Просмотров: 77
-----------------------------------------------------------------------------
                             Jukebox - Stoned
-----------------------------------------------------------------------------
Tabbed by: filiot96
E-mail: filiotrix@gmail.com

Tuning:Standard Tuning

Intro#
G|--------------------|
D|-55-555-55-33-22-00-|
A|--------------------|
E|--------------------|

Verse#4x
G|-------------------------------------------------------2-------------|
D|-------------002-3-2-0-------------------------002-3-0---55-33-22-00-|
A|-3-5-3-2-020-----------3-----------3-5-3-2-020-----------------------|
E|-------------------------33-5-3333-----------------------------------|

Pre-Chorus#
G|----------------------------------|
D|-0-00-0-2-22-2-3-33-3-55-33-22-00-|
A|----------------------------------|
E|----------------------------------|

Verse#2x,Pre-Chorus#

Interlude#
G|--------------------|
D|--------------------|
A|-3-33-33-33-33-3333-|
E|--------------------|

End#
G|------------------------10\----------------------------10\--------------------|
D|-------10\-------00-2-3-----33-5-------10\-------00-23-----33-5-------10\-----|
A|-00-23-----00000-----------------00-23-----00000----------------00-23-----2-3-|
E|------------------------------------------------------------------------------|



| /  slide up
| \  slide down
| h  hammer-on
| p  pull-off
| ~  vibrato
| +  harmonic
| x  Mute note
=============================================================================
Добавлено: 30.10.2013
Другие материалы по этой песне:
  • Аккорды и текст

Страница создана 30.10.2013
http://primanota.ru/stoned/jukebox-jim-chords.htm
Привет, Гость.
Предлагаем пройти революционный курс по гитаре.
Подарок от PrimaNota.Ru, забирай!