PrimaNota.ru - самый крупный в мире бесплатный архив песенных текстов, аккордов, табулатур и нот


Stoned - Disfigurative - бас-таба, видео

Регистрация Запомнить меня
Войти через:  Facebook Google Twitter Vk Yandex Mail.ru

Stoned - Disfigurative - бас-таба, видео

Печатать
Просмотров: 73
-----------------------------------------------------------------------------
                             Disfigurative - Stoned
-----------------------------------------------------------------------------
Tabbed by: filiot96
E-mail: filiotrix@gmail.com

Tuning:Standard Tuning

Intro#
G|----------------------------------------------------|
D|----------------------------------------------------|
A|---------------555555-777777---------------555555-7-|
E|-222222-555555---------------222222-555555----------|

Pre-Verse#
G|-------------------------------------------------------|
D|-------------------------------------------------------|
A|-------22222-55555-5-4-2-22-24-------22222-55555-5-4-2-|
E|-55555-------------------------55555-------------------|

Verse#
G|-------3x----------------------|-------4th-time-------|
D|-------------------------------|----------------------|
A|-------22222-55555-5-4-2-22-24-|-------22222-55-5-55--|
E|-55555-------------------------|-55555----------------|

Pre-Chorus#
G|----------------------------------------------------|
D|----------------------------------------------------|
A|-------------55555-5-4-2-22-24--------22222-5555555-|
E|-55555-22222--------------------55555---------------|

Chorus#2x
G|-----------------------------|
D|-----------------------------|
A|---------------555555-777777-|
E|-222222-555555---------------|

Bridge#
G|-----2x-------------|-----------------------------------|
D|--------------------|-----------------------------------|
A|-55-5-77-7----------|-55-5-77777----------5-5-5-7-7-7---|
E|-----------55442200-|------------55442200-------------5-|

Chorus#

Outro
G|-------------------------------------------------------------|
D|-------------------------------------------------------------|
A|---------------555555-777777-------------55555-77777---------|
E|-222222-555555---------------22222-55555-------------5-----5-|

http://www.discogs.com/artist/Stoned
http://www.myspace.com/stonedrocks


| /  slide up
| \  slide down
| h  hammer-on
| p  pull-off
| ~  vibrato
| +  harmonic
| x  Mute note
=============================================================================
Добавлено: 09.08.2013
Другие материалы по этой песне:
  • Аккорды и текст

Страница создана 09.08.2013
http://primanota.ru/stoned/disfigurative-chords.htm
Привет, Гость.
Предлагаем пройти революционный курс по гитаре.
Подарок от PrimaNota.Ru, забирай!