PrimaNota.ru - самый крупный в мире бесплатный архив песенных текстов, аккордов, табулатур и нот


Stoned - Dinner At Eds - бас-таба, видео

Регистрация Запомнить меня
Войти через:  Facebook Google Twitter Vk Yandex Mail.ru

Stoned - Dinner At Eds - бас-таба, видео

Печатать
Просмотров: 62
-----------------------------------------------------------------------------
                             Dinner At Ed's - Stoned
-----------------------------------------------------------------------------
Tabbed by: filiot96
E-mail: filiotrix@gmail.com

Tuning:Standard Tuning

Verse.1#
G|----------------------------------------------------------------------|
D|----------------------------------------------------------------------|
A|-------55-55----------77775555----------55555555----------77777777--5-|
E|-22-22-------55555555----------22222222----------55555555-------------|

Verse.2#
G|-------------------------------------------------------------------|
D|-------------------------------------------------------------------|
A|-------55-55----------77775555----------55555555----------77777777-|
E|-22-22-------55555555----------22222222----------55555555----------|

Pre-Chorus#
G|-------------------------------------|
D|-------------------------------------|
A|-44444444-99999999-55555555-77777777-|
E|-------------------------------------|

Chorus#
G|--------------------------------------------------------------------------|
D|--------------------------------------------------------------------------|
A|----------77777777-99999999-55555555----------77777777-99999999-55555555-4|
E|-55555555----------------------------55555555-----------------------------|

Verse#2,Pre-Chorus#

Chorus2#2x
G|-------------------------------------|
D|-------------------------------------|
A|----------77777777-99999999-55555555-|
E|-55555555----------------------------|

Bridge.1#
G|----------------------------------------------------|
D|----------------------------------------------------|
A|-777777-999999-555555--------777777-999999-55555555-|
E|----------------------555555------------------------|

Chorus2#2x

Bridge.2#
G|-----------------------------------------------------------------|
D|-----------------------------------------------------------------|
A|---------7777777---------9999999---------6666666-7777777-9999999-|
E|-4444444---------7777777---------4444444-------------------------|

Chorus.3#
G|-----------------------------------------------------------|
D|---------------666666----------------------666666----------|
A|--------999999--------777777--------999999--------777777-6-|
E|-777777----------------------777777------------------------|

| /  slide up
| \  slide down
| h  hammer-on
| p  pull-off
| ~  vibrato
| +  harmonic
| x  Mute note
=============================================================================

http://www.myspace.com/stonedrocks
http://www.discogs.com/artist/Stoned
Добавлено: 18.08.2013
Другие материалы по этой песне:
  • Аккорды и текст

Страница создана 18.08.2013
http://primanota.ru/stoned/dinner-at-eds-chords.htm
Привет, Гость.
Предлагаем пройти революционный курс по гитаре.
Подарок от PrimaNota.Ru, забирай!