PrimaNota.ru - самый крупный в мире бесплатный архив песенных текстов, аккордов, табулатур и нот


Stoned - Anti-static - бас-таба, видео

Регистрация Запомнить меня
Войти через:  Facebook Google Twitter Vk Yandex Mail.ru

Stoned - Anti-static - бас-таба, видео

Печатать
Просмотров: 75
-----------------------------------------------------------------------------
                             Anti-Static - Stoned
-----------------------------------------------------------------------------
Tabbed by: filiot96
E-mail: filiotrix@gmail.com

Tuning:Standard Tuning

Intro#2x
G|---------------------------------------------|-Only-1-time-|
D|---------------------------------------------|-------------|
A|--------777777-999999-777777-555555-77-7-7-7-|-------------|
E|-555555--------------------------------------|555555555555-|

Verse#2x
G|--------------------------------------------|
D|--------------------------------------------|
A|----------77777777-99999999-555555-77-7-7-7-|
E|-55555555-----------------------------------|

Chorus#
G|-------2x--------------------|--------------------------------------|
D|-----------------------------|--------------------------------------|
A|-555555-777777-999999--------|-555555-777777-999999-777777-555555-7-|
E|----------------------555555-|--------------------------------------|

Gap#
G|--------------------------|
D|--------------------------|
A|--------------------------|
E|-555555555555555555555555-|

Verse#

Verse.2#
G|----------------------------------------|
D|----------------------------------------|
A|----------44444444-55555555-99999-77777-|
E|-55555555-------------------------------|

Chorus.2#
G|-------2x--------------------|-------------------------------------------|
D|-----------------------------|-------------------------------------------|
A|-555555-777777-999999--------|-555555-777777-999999-777777-555555-777777-|
E|----------------------555555-|-------------------------------------------|

Intro#

G|----------------------------------------------------------------------|
D|----------------------------------------------------------------------|
A|-----------------------4444444444-----------------55555555-77777777---|
E|-5555555555-0000000000------------2222222-0000000---------------------|

Gap#

Last-Chorus#
G|----------3x-----------------|--4-time--|
D|-----------------------------|----------|
A|-555555-777777-999999--------|-555555-7-|
E|----------------------555555-|----------|

G|----------------------------------------------|
D|----------------------------------------------|
A|-555555-777777-999999---------555555-222222---|
E|----------------------555555----------------5-|

http://www.discogs.com/artist/Stoned
http://www.myspace.com/stonedrocks

| /  slide up
| \  slide down
| h  hammer-on
| p  pull-off
| ~  vibrato
| +  harmonic
| x  Mute note
=============================================================================
Добавлено: 24.09.2013
Другие материалы по этой песне:
  • Аккорды и текст

Страница создана 24.09.2013
http://primanota.ru/stoned/anti-static-chords.htm
Привет, Гость.
Предлагаем пройти революционный курс по гитаре.
Подарок от PrimaNota.Ru, забирай!